  0
SECTION
  2
HEADER
  9
$ACADVER
  1
AC1015
  9
$ACADMAINTVER
 70
     6
  9
$DWGCODEPAGE
  3
ANSI_1254
  9
$INSBASE
 10
0.0
 20
0.0
 30
0.0
  9
$EXTMIN
 10
0.0
 20
0.0
 30
0.0
  9
$EXTMAX
 10
279.4
 20
215.9
 30
0.0
  9
$LIMMIN
 10
0.0
 20
0.0
  9
$LIMMAX
 10
279.4
 20
215.9
  9
$ORTHOMODE
 70
     0
  9
$REGENMODE
 70
     1
  9
$FILLMODE
 70
     1
  9
$QTEXTMODE
 70
     0
  9
$MIRRTEXT
 70
     1
  9
$LTSCALE
 40
1.0
  9
$ATTMODE
 70
     1
  9
$TEXTSIZE
 40
3.5
  9
$TRACEWID
 40
1.0
  9
$TEXTSTYLE
  7
Standard
  9
$CLAYER
  8
0
  9
$CELTYPE
  6
ByLayer
  9
$CECOLOR
 62
   256
  9
$CELTSCALE
 40
1.0
  9
$DISPSILH
 70
     0
  9
$DIMSCALE
 40
1.0
  9
$DIMASZ
 40
3.5
  9
$DIMEXO
 40
1.0
  9
$DIMDLI
 40
3.75
  9
$DIMRND
 40
0.0
  9
$DIMDLE
 40
0.0
  9
$DIMEXE
 40
1.0
  9
$DIMTP
 40
0.0
  9
$DIMTM
 40
0.0
  9
$DIMTXT
 40
3.5
  9
$DIMCEN
 40
2.5
  9
$DIMTSZ
 40
0.0
  9
$DIMTOL
 70
     0
  9
$DIMLIM
 70
     0
  9
$DIMTIH
 70
     1
  9
$DIMTOH
 70
     1
  9
$DIMSE1
 70
     0
  9
$DIMSE2
 70
     0
  9
$DIMTAD
 70
     1
  9
$DIMZIN
 70
     0
  9
$DIMBLK
  1

  9
$DIMASO
 70
     1
  9
$DIMSHO
 70
     1
  9
$DIMPOST
  1

  9
$DIMAPOST
  1

  9
$DIMALT
 70
     0
  9
$DIMALTD
 70
     3
  9
$DIMALTF
 40
0.0393700787
  9
$DIMLFAC
 40
1.0
  9
$DIMTOFL
 70
     1
  9
$DIMTVP
 40
0.0
  9
$DIMTIX
 70
     0
  9
$DIMSOXD
 70
     0
  9
$DIMSAH
 70
     0
  9
$DIMBLK1
  1

  9
$DIMBLK2
  1

  9
$DIMSTYLE
  2
ISO-25
  9
$DIMCLRD
 70
     0
  9
$DIMCLRE
 70
     0
  9
$DIMCLRT
 70
     0
  9
$DIMTFAC
 40
1.0
  9
$DIMGAP
 40
1.524
  9
$DIMJUST
 70
     0
  9
$DIMSD1
 70
     0
  9
$DIMSD2
 70
     0
  9
$DIMTOLJ
 70
     0
  9
$DIMTZIN
 70
     0
  9
$DIMALTZ
 70
     0
  9
$DIMALTTZ
 70
     0
  9
$DIMUPT
 70
     0
  9
$DIMDEC
 70
     2
  9
$DIMTDEC
 70
     2
  9
$DIMALTU
 70
     2
  9
$DIMALTTD
 70
     3
  9
$DIMTXSTY
  7
Standard
  9
$DIMAUNIT
 70
     0
  9
$DIMADEC
 70
     2
  9
$DIMALTRND
 40
0.0
  9
$DIMAZIN
 70
     0
  9
$DIMDSEP
 70
    44
  9
$DIMATFIT
 70
     3
  9
$DIMFRAC
 70
     0
  9
$DIMLDRBLK
  1

  9
$DIMLUNIT
 70
     2
  9
$DIMLWD
 70
    -2
  9
$DIMLWE
 70
    -2
  9
$DIMTMOVE
 70
     0
  9
$LUNITS
 70
     2
  9
$LUPREC
 70
     2
  9
$SKETCHINC
 40
1.0
  9
$FILLETRAD
 40
10.0
  9
$AUNITS
 70
     0
  9
$AUPREC
 70
     2
  9
$MENU
  1
.
  9
$ELEVATION
 40
0.0
  9
$PELEVATION
 40
0.0
  9
$THICKNESS
 40
0.0
  9
$LIMCHECK
 70
     0
  9
$CHAMFERA
 40
0.0
  9
$CHAMFERB
 40
0.0
  9
$CHAMFERC
 40
0.0
  9
$CHAMFERD
 40
0.0
  9
$SKPOLY
 70
     0
  9
$TDCREATE
 40
2458985.72138478
  9
$TDUCREATE
 40
2458985.59638478
  9
$TDUPDATE
 40
2458985.721385092
  9
$TDUUPDATE
 40
2458985.596385092
  9
$TDINDWG
 40
0.0000000116
  9
$TDUSRTIMER
 40
0.0000000116
  9
$USRTIMER
 70
     1
  9
$ANGBASE
 50
0.0
  9
$ANGDIR
 70
     0
  9
$PDMODE
 70
     0
  9
$PDSIZE
 40
-1.0
  9
$PLINEWID
 40
0.0
  9
$SPLFRAME
 70
     0
  9
$SPLINETYPE
 70
     6
  9
$SPLINESEGS
 70
     8
  9
$HANDSEED
  5
DD
  9
$SURFTAB1
 70
     6
  9
$SURFTAB2
 70
     6
  9
$SURFTYPE
 70
     6
  9
$SURFU
 70
     6
  9
$SURFV
 70
     6
  9
$UCSBASE
  2

  9
$UCSNAME
  2

  9
$UCSORG
 10
0.0
 20
0.0
 30
0.0
  9
$UCSXDIR
 10
1.0
 20
0.0
 30
0.0
  9
$UCSYDIR
 10
0.0
 20
1.0
 30
0.0
  9
$UCSORTHOREF
  2

  9
$UCSORTHOVIEW
 70
     0
  9
$UCSORGTOP
 10
0.0
 20
0.0
 30
0.0
  9
$UCSORGBOTTOM
 10
0.0
 20
0.0
 30
0.0
  9
$UCSORGLEFT
 10
0.0
 20
0.0
 30
0.0
  9
$UCSORGRIGHT
 10
0.0
 20
0.0
 30
0.0
  9
$UCSORGFRONT
 10
0.0
 20
0.0
 30
0.0
  9
$UCSORGBACK
 10
0.0
 20
0.0
 30
0.0
  9
$PUCSBASE
  2

  9
$PUCSNAME
  2

  9
$PUCSORG
 10
0.0
 20
0.0
 30
0.0
  9
$PUCSXDIR
 10
1.0
 20
0.0
 30
0.0
  9
$PUCSYDIR
 10
0.0
 20
1.0
 30
0.0
  9
$PUCSORTHOREF
  2

  9
$PUCSORTHOVIEW
 70
     0
  9
$PUCSORGTOP
 10
0.0
 20
0.0
 30
0.0
  9
$PUCSORGBOTTOM
 10
0.0
 20
0.0
 30
0.0
  9
$PUCSORGLEFT
 10
0.0
 20
0.0
 30
0.0
  9
$PUCSORGRIGHT
 10
0.0
 20
0.0
 30
0.0
  9
$PUCSORGFRONT
 10
0.0
 20
0.0
 30
0.0
  9
$PUCSORGBACK
 10
0.0
 20
0.0
 30
0.0
  9
$USERI1
 70
     0
  9
$USERI2
 70
     0
  9
$USERI3
 70
     0
  9
$USERI4
 70
     0
  9
$USERI5
 70
     0
  9
$USERR1
 40
0.0
  9
$USERR2
 40
0.0
  9
$USERR3
 40
0.0
  9
$USERR4
 40
0.0
  9
$USERR5
 40
0.0
  9
$WORLDVIEW
 70
     1
  9
$SHADEDGE
 70
     3
  9
$SHADEDIF
 70
    70
  9
$TILEMODE
 70
     1
  9
$MAXACTVP
 70
    64
  9
$PINSBASE
 10
0.0
 20
0.0
 30
0.0
  9
$PLIMCHECK
 70
     0
  9
$PEXTMIN
 10
1.0000000000E+20
 20
1.0000000000E+20
 30
1.0000000000E+20
  9
$PEXTMAX
 10
-1.0000000000E+20
 20
-1.0000000000E+20
 30
-1.0000000000E+20
  9
$PLIMMIN
 10
0.0
 20
0.0
  9
$PLIMMAX
 10
420.0
 20
297.0
  9
$UNITMODE
 70
     0
  9
$VISRETAIN
 70
     1
  9
$PLINEGEN
 70
     0
  9
$PSLTSCALE
 70
     1
  9
$TREEDEPTH
 70
  3020
  9
$CMLSTYLE
  2
Standard
  9
$CMLJUST
 70
     0
  9
$CMLSCALE
 40
20.0
  9
$PROXYGRAPHICS
 70
     1
  9
$MEASUREMENT
 70
     1
  9
$CELWEIGHT
370
    -1
  9
$ENDCAPS
280
     0
  9
$JOINSTYLE
280
     0
  9
$LWDISPLAY
290
     1
  9
$INSUNITS
 70
     4
  9
$HYPERLINKBASE
  1

  9
$STYLESHEET
  1

  9
$XEDIT
290
     1
  9
$CEPSNTYPE
380
     0
  9
$PSTYLEMODE
290
     1
  9
$FINGERPRINTGUID
  2
{98a062bb-667b-49cd-b413-0a737ece5b2b}
  9
$VERSIONGUID
  2
{FAEB1C32-E019-11D5-929B-00C0DF256EC4}
  9
$EXTNAMES
290
     1
  9
$PSVPSCALE
 40
0.0
  9
$OLESTARTUP
290
     0
  0
ENDSEC
  0
SECTION
  2
CLASSES
  0
CLASS
  1
ACDBDICTIONARYWDFLT
  2
AcDbDictionaryWithDefault
  3
ObjectDBX Classes
 90
        0
280
     0
281
     0
  0
CLASS
  1
VISUALSTYLE
  2
AcDbVisualStyle
  3
ObjectDBX Classes
 90
     4095
280
     0
281
     0
  0
CLASS
  1
MATERIAL
  2
AcDbMaterial
  3
ObjectDBX Classes
 90
     1153
280
     0
281
     0
  0
CLASS
  1
SCALE
  2
AcDbScale
  3
ObjectDBX Classes
 90
     1153
280
     0
281
     0
  0
CLASS
  1
TABLESTYLE
  2
AcDbTableStyle
  3
ObjectDBX Classes
 90
     4095
280
     0
281
     0
  0
CLASS
  1
MLEADERSTYLE
  2
AcDbMLeaderStyle
  3
ACDB_MLEADERSTYLE_CLASS
 90
     4095
280
     0
281
     0
  0
CLASS
  1
SUN
  2
AcDbSun
  3
SCENEOE
 90
     1153
280
     0
281
     0
  0
CLASS
  1
ACDBPLACEHOLDER
  2
AcDbPlaceHolder
  3
ObjectDBX Classes
 90
        0
280
     0
281
     0
  0
CLASS
  1
LAYOUT
  2
AcDbLayout
  3
ObjectDBX Classes
 90
        0
280
     0
281
     0
  0
ENDSEC
  0
SECTION
  2
TABLES
  0
TABLE
  2
VPORT
  5
8
330
0
100
AcDbSymbolTable
 70
     1
  0
VPORT
  5
29
330
8
100
AcDbSymbolTableRecord
100
AcDbViewportTableRecord
  2
*Active
 70
     0
 10
0.0
 20
0.0
 11
1.0
 21
1.0
 12
139.7
 22
107.95
 13
0.0
 23
0.0
 14
10.0
 24
10.0
 15
10.0
 25
10.0
 16
0.0
 26
0.0
 36
1.0
 17
0.0
 27
0.0
 37
0.0
 40
215.9
 41
1.2941176471
 42
50.0
 43
0.0
 44
0.0
 50
0.0
 51
0.0
 71
     0
 72
  2000
 73
     1
 74
     3
 75
     0
 76
     0
 77
     0
 78
     0
281
     0
 65
     1
110
0.0
120
0.0
130
0.0
111
1.0
121
0.0
131
0.0
112
0.0
122
1.0
132
0.0
 79
     0
146
0.0
  0
ENDTAB
  0
TABLE
  2
LTYPE
  5
5
330
0
100
AcDbSymbolTable
 70
     6
  0
LTYPE
  5
14
330
5
100
AcDbSymbolTableRecord
100
AcDbLinetypeTableRecord
  2
ByBlock
 70
     0
  3

 72
    65
 73
     0
 40
0.0
  0
LTYPE
  5
15
330
5
100
AcDbSymbolTableRecord
100
AcDbLinetypeTableRecord
  2
ByLayer
 70
     0
  3

 72
    65
 73
     0
 40
0.0
  0
LTYPE
  5
16
330
5
100
AcDbSymbolTableRecord
100
AcDbLinetypeTableRecord
  2
Continuous
 70
     0
  3
Solid line
 72
    65
 73
     0
 40
0.0
  0
LTYPE
  5
6E
330
5
100
AcDbSymbolTableRecord
100
AcDbLinetypeTableRecord
  2
HIDDEN
 70
     0
  3
Hidden __ __ __ __ __ __ __ __ __ __ __ __ __ __
 72
    65
 73
     2
 40
1.905
 49
1.27
 74
     0
 49
-0.635
 74
     0
  0
LTYPE
  5
6F
330
5
100
AcDbSymbolTableRecord
100
AcDbLinetypeTableRecord
  2
PHANTOM
 70
     0
  3
Phantom ______  __  __  ______  __  __  ______
 72
    65
 73
     6
 40
12.7
 49
6.35
 74
     0
 49
-1.27
 74
     0
 49
1.27
 74
     0
 49
-1.27
 74
     0
 49
1.27
 74
     0
 49
-1.27
 74
     0
  0
LTYPE
  5
70
330
5
100
AcDbSymbolTableRecord
100
AcDbLinetypeTableRecord
  2
CENTER
 70
     0
  3
Center ____ _ ____ _ ____ _ ____ _ ____ _ ____
 72
    65
 73
     4
 40
10.16
 49
6.35
 74
     0
 49
-1.27
 74
     0
 49
1.27
 74
     0
 49
-1.27
 74
     0
  0
LTYPE
  5
71
330
5
100
AcDbSymbolTableRecord
100
AcDbLinetypeTableRecord
  2
CENTERX2
 70
     0
  3
Center (2x) ________  __  ________  __  _____
 72
    65
 73
     4
 40
20.32
 49
12.7
 74
     0
 49
-2.54
 74
     0
 49
2.54
 74
     0
 49
-2.54
 74
     0
  0
LTYPE
  5
72
330
5
100
AcDbSymbolTableRecord
100
AcDbLinetypeTableRecord
  2
DOT2
 70
     0
  3
Dot (.5x) ........................................
 72
    65
 73
     2
 40
0.635
 49
0.0
 74
     0
 49
-0.635
 74
     0
  0
ENDTAB
  0
TABLE
  2
LAYER
  5
2
330
0
100
AcDbSymbolTable
 70
    17
  0
LAYER
  5
10
330
2
100
AcDbSymbolTableRecord
100
AcDbLayerTableRecord
  2
0
 70
     0
 62
     7
  6
Continuous
370
    -3
390
F
  0
LAYER
  5
73
330
2
100
AcDbSymbolTableRecord
100
AcDbLayerTableRecord
  2
FORMAT
 70
     0
 62
     7
  6
Continuous
370
    -3
390
F
  0
LAYER
  5
74
330
2
100
AcDbSymbolTableRecord
100
AcDbLayerTableRecord
  2
YARDIMCI_GEOMETRI
 70
     0
 62
    -6
  6
Continuous
290
     0
370
    -3
390
F
  0
LAYER
  5
75
330
2
100
AcDbSymbolTableRecord
100
AcDbLayerTableRecord
  2
SAYFA_CERCEVESI
 70
     0
 62
     7
  6
Continuous
370
    25
390
F
  0
LAYER
  5
76
330
2
100
AcDbSymbolTableRecord
100
AcDbLayerTableRecord
  2
ANTET
 70
     0
 62
     7
  6
Continuous
370
    -3
390
F
  0
LAYER
  5
77
330
2
100
AcDbSymbolTableRecord
100
AcDbLayerTableRecord
  2
OLCU
 70
     0
 62
   150
  6
Continuous
370
    -3
390
F
  0
LAYER
  5
78
330
2
100
AcDbSymbolTableRecord
100
AcDbLayerTableRecord
  2
METIN
 70
     0
 62
    96
  6
Continuous
370
    -3
390
F
  0
LAYER
  5
79
330
2
100
AcDbSymbolTableRecord
100
AcDbLayerTableRecord
  2
BALON
 70
     0
 62
     5
  6
Continuous
370
    -3
390
F
  0
LAYER
  5
7A
330
2
100
AcDbSymbolTableRecord
100
AcDbLayerTableRecord
  2
VURGU
 70
     0
 62
     7
  6
Continuous
370
    -3
390
F
  0
LAYER
  5
7B
330
2
100
AcDbSymbolTableRecord
100
AcDbLayerTableRecord
  2
SILIK
 70
     0
 62
     7
  6
Continuous
370
    -3
390
F
  0
LAYER
  5
7C
330
2
100
AcDbSymbolTableRecord
100
AcDbLayerTableRecord
  2
MODEL
 70
     0
 62
     7
  6
Continuous
370
    -3
390
F
  0
LAYER
  5
7D
330
2
100
AcDbSymbolTableRecord
100
AcDbLayerTableRecord
  2
DETAYLANDıRMA
 70
     0
 62
   190
  6
Continuous
370
    -3
390
F
  0
LAYER
  5
7E
330
2
100
AcDbSymbolTableRecord
100
AcDbLayerTableRecord
  2
TOLERANS
 70
     0
 62
   230
  6
Continuous
370
    -3
390
F
  0
LAYER
  5
7F
330
2
100
AcDbSymbolTableRecord
100
AcDbLayerTableRecord
  2
MERKEZ_CIZGILERI
 70
     0
 62
    30
  6
Continuous
370
    -3
390
F
  0
LAYER
  5
80
330
2
100
AcDbSymbolTableRecord
100
AcDbLayerTableRecord
  2
KESIT-DETAY_CIZGILERI
 70
     0
 62
     7
  6
Continuous
370
    -3
390
F
  0
LAYER
  5
81
330
2
100
AcDbSymbolTableRecord
100
AcDbLayerTableRecord
  2
\U+041E\U+0421\U+0415\U+0412\U+042B\U+0415
 70
     0
 62
     7
  6
Continuous
370
    -3
390
F
  0
LAYER
  5
82
330
2
100
AcDbSymbolTableRecord
100
AcDbLayerTableRecord
  2
\U+0412\U+041E\U+0414\U+042F\U+041D\U+042B\U+0415_\U+0417\U+041D\U+0410\U+041A\U+0418
 70
     0
 62
    11
  6
Continuous
370
    -3
390
F
  0
ENDTAB
  0
TABLE
  2
STYLE
  5
3
330
0
100
AcDbSymbolTable
 70
     1
  0
STYLE
  5
11
330
3
100
AcDbSymbolTableRecord
100
AcDbTextStyleTableRecord
  2
Standard
 70
     0
 40
0.0
 41
1.0
 50
0.0
 71
     0
 42
3.5
  3
txt
  4

  0
ENDTAB
  0
TABLE
  2
VIEW
  5
6
330
0
100
AcDbSymbolTable
 70
     0
  0
ENDTAB
  0
TABLE
  2
UCS
  5
7
330
0
100
AcDbSymbolTable
 70
     0
  0
ENDTAB
  0
TABLE
  2
APPID
  5
9
330
0
100
AcDbSymbolTable
 70
     1
  0
APPID
  5
12
330
9
100
AcDbSymbolTableRecord
100
AcDbRegAppTableRecord
  2
ACAD
 70
     0
  0
ENDTAB
  0
TABLE
  2
DIMSTYLE
  5
A
330
0
100
AcDbSymbolTable
 70
     1
100
AcDbDimStyleTable
  0
DIMSTYLE
105
27
330
A
100
AcDbSymbolTableRecord
100
AcDbDimStyleTableRecord
  2
ISO-25
 70
     0
 41
2.5
 42
0.625
 43
3.75
 44
1.25
 73
     0
 74
     0
 77
     1
 78
     8
140
2.5
141
2.5
143
0.0393700787
147
0.625
171
     3
172
     1
178
     0
271
     2
272
     2
274
     3
278
    44
283
     0
284
     8
340
11
  0
ENDTAB
  0
TABLE
  2
BLOCK_RECORD
  5
1
330
0
100
AcDbSymbolTable
 70
     3
  0
BLOCK_RECORD
  5
1F
330
1
100
AcDbSymbolTableRecord
100
AcDbBlockTableRecord
  2
*Model_Space
340
22
  0
BLOCK_RECORD
  5
1B
330
1
100
AcDbSymbolTableRecord
100
AcDbBlockTableRecord
  2
*Paper_Space
340
1E
  0
BLOCK_RECORD
  5
23
330
1
100
AcDbSymbolTableRecord
100
AcDbBlockTableRecord
  2
*Paper_Space0
340
26
  0
BLOCK_RECORD
  5
A5
330
1
100
AcDbSymbolTableRecord
100
AcDbBlockTableRecord
  2
SW_CENTERMARKSYMBOL_0
340
0
102
{BLKREFS
331
B0
102
}
  0
BLOCK_RECORD
  5
C3
330
1
100
AcDbSymbolTableRecord
100
AcDbBlockTableRecord
  2
SW_CENTERMARKSYMBOL_1
340
0
102
{BLKREFS
331
CE
102
}
  0
ENDTAB
  0
ENDSEC
  0
SECTION
  2
BLOCKS
  0
BLOCK
  5
20
330
1F
100
AcDbEntity
  8
0
100
AcDbBlockBegin
  2
*Model_Space
 70
     0
 10
0.0
 20
0.0
 30
0.0
  3
*Model_Space
  1

  0
ENDBLK
  5
21
330
1F
100
AcDbEntity
  8
0
100
AcDbBlockEnd
  0
BLOCK
  5
1C
330
1B
100
AcDbEntity
 67
     1
  8
0
100
AcDbBlockBegin
  2
*Paper_Space
 70
     0
 10
0.0
 20
0.0
 30
0.0
  3
*Paper_Space
  1

  0
ENDBLK
  5
1D
330
1B
100
AcDbEntity
 67
     1
  8
0
100
AcDbBlockEnd
  0
BLOCK
  5
24
330
23
100
AcDbEntity
  8
0
100
AcDbBlockBegin
  2
*Paper_Space0
 70
     0
 10
0.0
 20
0.0
 30
0.0
  3
*Paper_Space0
  1

  0
ENDBLK
  5
25
330
23
100
AcDbEntity
  8
0
100
AcDbBlockEnd
  0
BLOCK
  5
A6
330
A5
100
AcDbEntity
  8
0
100
AcDbBlockBegin
  2
SW_CENTERMARKSYMBOL_0
 70
     0
 10
0.0
 20
0.0
 30
0.0
  3
SW_CENTERMARKSYMBOL_0
  1

  0
LINE
  5
A8
330
A5
100
AcDbEntity
  8
FORMAT
 62
     0
100
AcDbLine
 10
0.0
 20
0.0
 30
0.0
 11
0.0
 21
2.5
 31
0.0
  0
LINE
  5
A9
330
A5
100
AcDbEntity
  8
FORMAT
 62
     0
100
AcDbLine
 10
0.0
 20
0.0
 30
0.0
 11
-2.5
 21
0.0
 31
0.0
  0
LINE
  5
AA
330
A5
100
AcDbEntity
  8
FORMAT
 62
     0
100
AcDbLine
 10
0.0
 20
0.0
 30
0.0
 11
0.0
 21
-2.5
 31
0.0
  0
LINE
  5
AB
330
A5
100
AcDbEntity
  8
FORMAT
 62
     0
100
AcDbLine
 10
0.0
 20
0.0
 30
0.0
 11
2.5
 21
0.0
 31
0.0
  0
LINE
  5
AC
330
A5
100
AcDbEntity
  8
FORMAT
 62
     0
100
AcDbLine
 10
0.0
 20
5.0
 30
0.0
 11
0.0
 21
47.5
 31
0.0
  0
LINE
  5
AD
330
A5
100
AcDbEntity
  8
FORMAT
 62
     0
100
AcDbLine
 10
-5.0
 20
0.0
 30
0.0
 11
-47.5
 21
0.0
 31
0.0
  0
LINE
  5
AE
330
A5
100
AcDbEntity
  8
FORMAT
 62
     0
100
AcDbLine
 10
0.0
 20
-5.0
 30
0.0
 11
0.0
 21
-47.5
 31
0.0
  0
LINE
  5
AF
330
A5
100
AcDbEntity
  8
FORMAT
 62
     0
100
AcDbLine
 10
5.0
 20
0.0
 30
0.0
 11
47.5
 21
0.0
 31
0.0
  0
ENDBLK
  5
A7
330
A5
100
AcDbEntity
  8
0
100
AcDbBlockEnd
  0
BLOCK
  5
C4
330
C3
100
AcDbEntity
  8
0
100
AcDbBlockBegin
  2
SW_CENTERMARKSYMBOL_1
 70
     0
 10
0.0
 20
0.0
 30
0.0
  3
SW_CENTERMARKSYMBOL_1
  1

  0
LINE
  5
C6
330
C3
100
AcDbEntity
  8
FORMAT
 62
     0
100
AcDbLine
 10
0.0
 20
0.0
 30
0.0
 11
0.0
 21
2.5
 31
0.0
  0
LINE
  5
C7
330
C3
100
AcDbEntity
  8
FORMAT
 62
     0
100
AcDbLine
 10
0.0
 20
0.0
 30
0.0
 11
-2.5
 21
0.0
 31
0.0
  0
LINE
  5
C8
330
C3
100
AcDbEntity
  8
FORMAT
 62
     0
100
AcDbLine
 10
0.0
 20
0.0
 30
0.0
 11
0.0
 21
-2.5
 31
0.0
  0
LINE
  5
C9
330
C3
100
AcDbEntity
  8
FORMAT
 62
     0
100
AcDbLine
 10
0.0
 20
0.0
 30
0.0
 11
2.5
 21
0.0
 31
0.0
  0
LINE
  5
CA
330
C3
100
AcDbEntity
  8
FORMAT
 62
     0
100
AcDbLine
 10
0.0
 20
5.0
 30
0.0
 11
0.0
 21
47.5
 31
0.0
  0
LINE
  5
CB
330
C3
100
AcDbEntity
  8
FORMAT
 62
     0
100
AcDbLine
 10
-5.0
 20
0.0
 30
0.0
 11
-47.5
 21
0.0
 31
0.0
  0
LINE
  5
CC
330
C3
100
AcDbEntity
  8
FORMAT
 62
     0
100
AcDbLine
 10
0.0
 20
-5.0
 30
0.0
 11
0.0
 21
-47.5
 31
0.0
  0
LINE
  5
CD
330
C3
100
AcDbEntity
  8
FORMAT
 62
     0
100
AcDbLine
 10
5.0
 20
0.0
 30
0.0
 11
47.5
 21
0.0
 31
0.0
  0
ENDBLK
  5
C5
330
C3
100
AcDbEntity
  8
0
100
AcDbBlockEnd
  0
ENDSEC
  0
SECTION
  2
ENTITIES
  0
LINE
  5
83
330
1F
100
AcDbEntity
  8
0
  6
Continuous
 62
     7
370
    25
100
AcDbLine
 10
86.5151964711
 20
89.8132205383
 30
0.0
 11
86.5151964711
 21
-9.5471709593
 31
0.0
  0
LINE
  5
84
330
1F
100
AcDbEntity
  8
0
  6
Continuous
 62
     7
370
    25
100
AcDbLine
 10
176.5152000474
 20
-9.5471709593
 30
0.0
 11
176.5152000474
 21
89.8132205383
 31
0.0
  0
ARC
  5
85
330
1F
100
AcDbEntity
  8
0
  6
Continuous
 62
     7
370
    25
100
AcDbCircle
 10
176.5151982593
 20
89.8132187339
 30
0.0
 40
90.0
100
AcDbArc
 50
135.0
 51
180.0
  0
LINE
  5
86
330
1F
100
AcDbEntity
  8
0
  6
Continuous
 62
     7
370
    25
100
AcDbLine
 10
183.6953916239
 20
224.2726415769
 30
0.0
 11
112.875587179
 21
153.4528315441
 31
0.0
  0
LINE
  5
87
330
1F
100
AcDbEntity
  8
0
  6
Continuous
 62
     7
370
    25
100
AcDbLine
 10
176.5152000474
 20
89.8132205383
 30
0.0
 11
247.3350026297
 21
160.6330305711
 31
0.0
  0
LINE
  5
88
330
1F
100
AcDbEntity
  8
0
  6
Continuous
 62
     7
370
    25
100
AcDbLine
 10
131.5151982593
 20
-9.5471709593
 30
0.0
 11
176.5152000474
 21
-9.5471709593
 31
0.0
  0
LINE
  5
89
330
1F
100
AcDbEntity
  8
0
  6
Continuous
 62
     7
370
    25
100
AcDbLine
 10
86.5151964711
 20
-9.5471709593
 30
0.0
 11
131.5151982593
 21
-9.5471709593
 31
0.0
  0
LWPOLYLINE
  5
8A
330
1F
100
AcDbEntity
  8
0
  6
Continuous
 62
     7
370
    25
100
AcDbPolyline
 90
       25
 70
   128
 43
0.0
 10
215.5151971268
 20
192.452836074
 10
217.6633485245
 20
190.3046846763
 10
219.8016875075
 20
188.1663382427
 10
221.9204761671
 20
186.0475421325
 10
224.010036199
 20
183.9579821006
 10
226.0608383106
 20
181.907179989
 10
228.0635245728
 20
179.904508628
 10
230.008953123
 20
177.9590726272
 10
231.8882503199
 20
176.0797828809
 10
233.6928405451
 20
174.2751926557
 10
235.4144909071
 20
172.5535422937
 10
237.045348494
 20
170.9226847068
 10
238.5779627251
 20
169.3900704757
 10
240.0053524064
 20
167.9626733438
 10
241.32099828
 20
166.6470349208
 10
242.5188951777
 20
165.4491305725
 10
243.5935818242
 20
164.374443926
 10
244.5401482867
 20
163.4278774635
 10
245.3542881297
 20
162.6137376205
 10
246.0322760629
 20
161.9357496873
 10
246.5710200953
 20
161.3969982044
 10
246.9680689858
 20
160.9999567644
 10
247.2215973424
 20
160.7464284078
 10
247.3304652261
 20
160.6375605241
 10
247.3350026297
 20
160.6330305711
  0
LWPOLYLINE
  5
8B
330
1F
100
AcDbEntity
  8
0
  6
Continuous
 62
     7
370
    25
100
AcDbPolyline
 90
       25
 70
   128
 43
0.0
 10
183.6953916239
 20
224.2726415769
 10
183.6999327527
 20
224.2680967228
 10
183.8087969111
 20
224.1592288391
 10
184.062328993
 20
223.9057004825
 10
184.4593741583
 20
223.5086590425
 10
184.9981181907
 20
222.9699075595
 10
185.6761098491
 20
222.2919196264
 10
186.4902459668
 20
221.4777797834
 10
187.4368161546
 20
220.5312133209
 10
188.5115028011
 20
219.4565266744
 10
189.7094034242
 20
218.258622326
 10
191.0250455724
 20
216.9429839031
 10
192.4524315285
 20
215.5156016723
 10
193.9850494849
 20
213.98297254
 10
195.6159033464
 20
212.3521298543
 10
197.3375537085
 20
210.6304794923
 10
199.1421439337
 20
208.825874366
 10
201.0214411305
 20
206.9465846197
 10
202.9668696808
 20
205.0011486188
 10
204.9695559429
 20
202.9984772579
 10
207.0203580545
 20
200.9476751463
 10
209.1099180864
 20
198.8581151144
 10
211.228706746
 20
196.7393190042
 10
213.3670531796
 20
194.6009725706
 10
215.5151971268
 20
192.452836074
  0
LINE
  5
8C
330
1F
100
AcDbEntity
  8
0
  6
Continuous
 62
     1
370
    25
100
AcDbLine
 10
86.5151964711
 20
89.8132205383
 30
0.0
 11
176.5152000474
 21
89.8132205383
 31
0.0
  0
LWPOLYLINE
  5
8D
330
1F
100
AcDbEntity
  8
0
  6
Continuous
 62
     1
370
    25
100
AcDbPolyline
 90
       49
 70
   128
 43
0.0
 10
112.875587179
 20
153.4528315441
 10
112.8937405186
 20
153.4346819297
 10
113.038844301
 20
153.289574422
 10
113.3283906268
 20
153.0000299589
 10
113.7610551553
 20
152.5673598424
 10
114.3348672079
 20
151.9935459272
 10
115.0472079056
 20
151.2812108175
 10
115.8948260011
 20
150.4335880653
 10
116.873853712
 20
149.4545668737
 10
117.9798253464
 20
148.3485877887
 10
119.2076940673
 20
147.1207172052
 10
120.551857038
 20
145.7765579597
 10
122.0061824309
 20
144.3222344295
 10
123.5640317785
 20
142.7643776313
 10
125.2183000209
 20
141.1101103202
 10
126.9614373917
 20
139.3669724838
 10
128.7854906289
 20
137.542921342
 10
130.6821370266
 20
135.6462866441
 10
132.6427227935
 20
133.6856961624
 10
134.6583020525
 20
131.6701203958
 10
136.7196784007
 20
129.6087384597
 10
138.8174461784
 20
127.510967888
 10
140.9420332523
 20
125.3863901273
 10
143.0837464171
 20
123.2446760313
 10
145.2328133049
 20
121.0956007616
 10
147.379427089
 20
118.9489841835
 10
149.5137949126
 20
116.8146163599
 10
151.6261779355
 20
114.7022351996
 10
153.7069369691
 20
112.621481754
 10
155.746578111
 20
110.5818406121
 10
157.735795586
 20
108.5926175491
 10
159.6655127244
 20
106.6629022733
 10
161.5269248026
 20
104.8014939205
 10
163.3115381586
 20
103.0168787018
 10
165.0112093078
 20
101.3172075526
 10
166.6181877839
 20
99.7102290765
 10
168.1251347648
 20
98.2032820956
 10
169.5251770901
 20
96.8032434956
 10
170.8119258868
 20
95.5164909736
 10
171.9795138227
 20
94.3489030377
 10
173.0226062821
 20
93.305806853
 10
173.9364497947
 20
92.3919633404
 10
174.7168757605
 20
91.6115448252
 10
175.3603190767
 20
90.9680977837
 10
175.8638442146
 20
90.4645726458
 10
176.2251563953
 20
90.1032567398
 10
176.4426053153
 20
89.885811545
 10
176.5152000474
 20
89.8132205383
 10
176.5152000474
 20
89.8132205383
  0
LINE
  5
8E
330
1F
100
AcDbEntity
  8
0
  6
Continuous
 62
     7
370
    25
100
AcDbLine
 10
-83.0354974883
 20
192.452836074
 30
0.0
 11
-83.0354974883
 21
121.6330260412
 31
0.0
  0
LINE
  5
8F
330
1F
100
AcDbEntity
  8
0
  6
Continuous
 62
     7
370
    25
100
AcDbLine
 10
6.964506088
 20
121.6330260412
 30
0.0
 11
6.964506088
 21
192.452836074
 31
0.0
  0
LINE
  5
90
330
1F
100
AcDbEntity
  8
0
  6
Continuous
 62
     7
370
    25
100
AcDbLine
 10
-83.0354974883
 20
121.6330260412
 30
0.0
 11
-83.0354974883
 21
89.8132205383
 31
0.0
  0
LINE
  5
91
330
1F
100
AcDbEntity
  8
0
  6
Continuous
 62
     7
370
    25
100
AcDbLine
 10
6.964506088
 20
89.8132205383
 30
0.0
 11
6.964506088
 21
121.6330260412
 31
0.0
  0
LINE
  5
92
330
1F
100
AcDbEntity
  8
0
  6
Continuous
 62
     7
370
    25
100
AcDbLine
 10
-83.0354974883
 20
89.8132205383
 30
0.0
 11
-83.0354974883
 21
-9.5471709593
 31
0.0
  0
LINE
  5
93
330
1F
100
AcDbEntity
  8
0
  6
Continuous
 62
     7
370
    25
100
AcDbLine
 10
6.964506088
 20
-9.5471709593
 30
0.0
 11
6.964506088
 21
89.8132205383
 31
0.0
  0
LWPOLYLINE
  5
94
330
1F
100
AcDbEntity
  8
0
  6
Continuous
 62
     7
370
    25
100
AcDbPolyline
 90
       94
 70
   128
 43
0.0
 10
-83.0354974883
 20
192.452836074
 10
-82.932832213
 20
190.3046846763
 10
-82.6253132241
 20
188.1663382427
 10
-82.1143412309
 20
186.0475421325
 10
-81.4022482651
 20
183.9579821006
 10
-80.4922827797
 20
181.907179989
 10
-79.3885984736
 20
179.904508628
 10
-78.0962244885
 20
177.9590726272
 10
-76.6210654097
 20
176.0797828809
 10
-74.9698491114
 20
174.2751926557
 10
-73.1501118558
 20
172.5535422937
 10
-71.1701535898
 20
170.9226847068
 10
-69.0390062796
 20
169.3900704757
 10
-66.7664003836
 20
167.9626733438
 10
-64.362701522
 20
166.6470349208
 10
-61.8388769495
 20
165.4491305725
 10
-59.2064415383
 20
164.374443926
 10
-56.4774112122
 20
163.4278774635
 10
-53.6642321663
 20
162.6137376205
 10
-50.7797436135
 20
161.9357496873
 10
-47.8371060731
 20
161.3969982044
 10
-44.8497454914
 20
160.9999567644
 10
-41.8312936368
 20
160.7464284078
 10
-38.7955223255
 20
160.6375605241
 10
-35.7562830018
 20
160.6738597528
 10
-32.7274436409
 20
160.855162181
 10
-29.7228233235
 20
161.180648245
 10
-26.7561315837
 20
161.6487980262
 10
-23.8409056606
 20
162.2575253622
 10
-20.9904467034
 20
163.0040139333
 10
-18.2177597003
 20
163.884866275
 10
-15.5354948061
 20
164.8960739748
 10
-12.9558951872
 20
166.0330176727
 10
-10.490727173
 20
167.2904968635
 10
-8.1512392776
 20
168.6628044025
 10
-5.9481063204
 20
170.1436519996
 10
-3.8913809972
 20
171.7262894289
 10
-1.9904473143
 20
173.403489627
 10
-0.2539777475
 20
175.1676231996
 10
1.3101002855
 20
177.0106137172
 10
2.694656579
 20
178.9240718261
 10
3.8933693153
 20
180.8992505447
 10
4.9007697684
 20
182.9271495716
 10
5.7122646553
 20
184.9985152856
 10
6.3241435868
 20
187.1038854496
 10
6.7336237711
 20
189.2336786167
 10
6.9388313872
 20
191.3781494276
 10
6.9388313872
 20
193.5275227205
 10
6.7336237711
 20
195.6719786302
 10
6.3241435868
 20
197.8017717973
 10
5.7122646553
 20
199.9071419612
 10
4.9007697684
 20
201.9785076753
 10
3.8933693153
 20
204.0064067022
 10
2.694656579
 20
205.9815854208
 10
1.3101002855
 20
207.8950435297
 10
-0.2539777475
 20
209.7380340473
 10
-1.9904473143
 20
211.5021676199
 10
-3.8913809972
 20
213.179367818
 10
-5.9481063204
 20
214.7620201484
 10
-8.1512392776
 20
216.2428677455
 10
-10.490727173
 20
217.6151603834
 10
-12.9558951872
 20
218.8726544754
 10
-15.5354948061
 20
220.0095832721
 10
-18.2177597003
 20
221.0207909719
 10
-20.9904467034
 20
221.9016582147
 10
-23.8409056606
 20
222.6481467859
 10
-26.7561315837
 20
223.2568592207
 10
-29.7228233235
 20
223.725023903
 10
-32.7274436409
 20
224.0504950658
 10
-35.7562830018
 20
224.2317974941
 10
-38.7955223255
 20
224.2680967228
 10
-41.8312936368
 20
224.1592288391
 10
-44.8497454914
 20
223.9057004825
 10
-47.8371060731
 20
223.5086590425
 10
-50.7797436135
 20
222.9699075595
 10
-53.6642321663
 20
222.2919196264
 10
-56.4774112122
 20
221.4777797834
 10
-59.2064415383
 20
220.5312133209
 10
-61.8388769495
 20
219.4565266744
 10
-64.362701522
 20
218.258622326
 10
-66.7664003836
 20
216.9429839031
 10
-69.0390062796
 20
215.5156016723
 10
-71.1701535898
 20
213.98297254
 10
-73.1501118558
 20
212.3521298543
 10
-74.9698491114
 20
210.6304794923
 10
-76.6210654097
 20
208.825874366
 10
-78.0962244885
 20
206.9465846197
 10
-79.3885984736
 20
205.0011486188
 10
-80.4922827797
 20
202.9984772579
 10
-81.4022482651
 20
200.9476751463
 10
-82.1143412309
 20
198.8581151144
 10
-82.6253132241
 20
196.7393190042
 10
-82.932832213
 20
194.6009725706
 10
-83.0354974883
 20
192.452836074
  0
LWPOLYLINE
  5
95
330
1F
100
AcDbEntity
  8
0
  6
Continuous
 62
     7
370
    25
100
AcDbPolyline
 90
       88
 70
   128
 43
0.0
 10
-77.6354954856
 20
192.452836074
 10
-77.5322676914
 20
194.4733441249
 10
-77.2231207507
 20
196.4833319561
 10
-76.7096714395
 20
198.4723091499
 10
-75.9945870655
 20
200.4299044982
 10
-75.0816078203
 20
202.3458958046
 10
-73.975483449
 20
204.2103290931
 10
-72.6819844263
 20
206.0134441034
 10
-71.2078535276
 20
207.7458829061
 10
-69.5607797521
 20
209.3985706941
 10
-67.7493480312
 20
210.9629243986
 10
-65.7830019759
 20
212.430763282
 10
-63.6719917225
 20
213.7944579498
 10
-61.4273255037
 20
215.046885647
 10
-59.0607063191
 20
216.1815047638
 10
-56.5844704675
 20
217.1924293415
 10
-54.0115279423
 20
218.0743694679
 10
-51.3552944454
 20
218.8227206842
 10
-48.629617812
 20
219.4336086885
 10
-45.8487081619
 20
219.90381483
 10
-43.0270643251
 20
220.2309102193
 10
-40.1793965416
 20
220.4131961242
 10
-37.3205513738
 20
220.449689068
 10
-34.4654335918
 20
220.340240039
 10
-31.6289286407
 20
220.0853854791
 10
-28.8258246424
 20
219.6864664928
 10
-26.0707349794
 20
219.1455692426
 10
-23.3780243712
 20
218.4655100481
 10
-20.7617306428
 20
217.6498204843
 10
-18.2354958075
 20
216.7027771846
 10
-15.8124887662
 20
215.6292975322
 10
-13.5053401159
 20
214.4349992649
 10
-11.3260825443
 20
213.1260812656
 10
-9.2860744613
 20
211.7093980686
 10
-7.3959515708
 20
210.1923108474
 10
-5.6655728536
 20
208.5827321188
 10
-4.1039497869
 20
206.8890661375
 10
-2.7192370313
 20
205.1201492921
 10
-1.5186430233
 20
203.2851755992
 10
-0.508429976
 20
201.3937265054
 10
0.3061345501
 20
199.4556665794
 10
0.9207999987
 20
197.4810988084
 10
1.3323663456
 20
195.4803198949
 10
1.5386878235
 20
193.4637457506
 10
1.5386878235
 20
191.4419114963
 10
1.3323663456
 20
189.4253373519
 10
0.9207999987
 20
187.4245584384
 10
0.3061345501
 20
185.4499906675
 10
-0.508429976
 20
183.5119307415
 10
-1.5186430233
 20
181.6204816476
 10
-2.7192370313
 20
179.7855079547
 10
-4.1039497869
 20
178.0165911094
 10
-5.6655728536
 20
176.3229251281
 10
-7.3959515708
 20
174.7133463995
 10
-9.2860744613
 20
173.1962591783
 10
-11.3260825443
 20
171.7795759813
 10
-13.5053401159
 20
170.470657982
 10
-15.8124887662
 20
169.2763597147
 10
-18.2354958075
 20
168.2028800623
 10
-20.7617306428
 20
167.2558367626
 10
-23.3780243712
 20
166.4401471988
 10
-26.0707349794
 20
165.7600880043
 10
-28.8258246424
 20
165.2191907541
 10
-31.6289286407
 20
164.8202717678
 10
-34.4654335918
 20
164.5654172079
 10
-37.3205513738
 20
164.4559681789
 10
-40.1793965416
 20
164.4924611227
 10
-43.0270643251
 20
164.6747470275
 10
-45.8487081619
 20
165.0018424169
 10
-48.629617812
 20
165.4720485584
 10
-51.3552944454
 20
166.0829365627
 10
-54.0115279423
 20
166.831287779
 10
-56.5844704675
 20
167.7132279054
 10
-59.0607063191
 20
168.7241524831
 10
-61.4273255037
 20
169.8587715999
 10
-63.6719917225
 20
171.1111992971
 10
-65.7830019759
 20
172.4748939649
 10
-67.7493480312
 20
173.9427328483
 10
-69.5607797521
 20
175.5070865528
 10
-71.2078535276
 20
177.1597892419
 10
-72.6819844263
 20
178.8922131435
 10
-73.975483449
 20
180.6953281538
 10
-75.0816078203
 20
182.5597614423
 10
-75.9945870655
 20
184.4757527486
 10
-76.7096714395
 20
186.433348097
 10
-77.2231207507
 20
188.4223252908
 10
-77.5322676914
 20
190.4323131219
 10
-77.6354954856
 20
192.452836074
  0
LINE
  5
96
330
1F
100
AcDbEntity
  8
0
  6
Continuous
 62
     7
370
    25
100
AcDbLine
 10
-83.0354974883
 20
-9.5471709593
 30
0.0
 11
6.964506088
 21
-9.5471709593
 31
0.0
  0
LWPOLYLINE
  5
97
330
1F
100
AcDbEntity
  8
0
  6
Continuous
 62
     1
370
    25
100
AcDbPolyline
 90
       25
 70
   128
 43
0.0
 10
-38.0354957002
 20
89.8132205383
 10
-34.9975570849
 20
89.885811545
 10
-31.9734798091
 20
90.1032567398
 10
-28.9770621153
 20
90.4645726458
 10
-26.0219765174
 20
90.9680977837
 10
-23.1217048409
 20
91.6115448252
 10
-20.2894830423
 20
92.3919633404
 10
-17.538229497
 20
93.305806853
 10
-14.8805030899
 20
94.3489030377
 10
-12.3284259158
 20
95.5164909736
 10
-9.8936450946
 20
96.8032434956
 10
-7.5872675794
 20
98.2032820956
 10
-5.4198191779
 20
99.7102290765
 10
-3.4011886733
 20
101.3172075526
 10
-1.5405887084
 20
103.0168787018
 10
0.1534945054
 20
104.8014939205
 10
1.6733309907
 20
106.6629022733
 10
3.0119879825
 20
108.5926175491
 10
4.1633485539
 20
110.5818406121
 10
5.1221712215
 20
112.621481754
 10
5.8840713186
 20
114.7022351996
 10
6.4455806
 20
116.8146163599
 10
6.8041286153
 20
118.9489841835
 10
6.9580874128
 20
121.0956007616
 10
6.964506088
 20
121.6330260412
  0
LWPOLYLINE
  5
98
330
1F
100
AcDbEntity
  8
0
  6
Continuous
 62
     1
370
    25
100
AcDbPolyline
 90
       25
 70
   128
 43
0.0
 10
-83.0354974883
 20
121.6330260412
 10
-83.0290788131
 20
121.0956007616
 10
-82.8751200157
 20
118.9489841835
 10
-82.5165720003
 20
116.8146163599
 10
-81.9550627189
 20
114.7022351996
 10
-81.1931626218
 20
112.621481754
 10
-80.2343399542
 20
110.5818406121
 10
-79.0829793828
 20
108.5926175491
 10
-77.7443223911
 20
106.6629022733
 10
-76.2244859057
 20
104.8014939205
 10
-74.5304026919
 20
103.0168787018
 10
-72.669802727
 20
101.3172075526
 10
-70.6511722224
 20
99.7102290765
 10
-68.483723821
 20
98.2032820956
 10
-66.1773463058
 20
96.8032434956
 10
-63.7425654846
 20
95.5164909736
 10
-61.1904883104
 20
94.3489030377
 10
-58.5327619033
 20
93.305806853
 10
-55.781508358
 20
92.3919633404
 10
-52.9492865594
 20
91.6115448252
 10
-50.049014883
 20
90.9680977837
 10
-47.093929285
 20
90.4645726458
 10
-44.0975115912
 20
90.1032567398
 10
-41.0734343155
 20
89.885811545
 10
-38.0354957002
 20
89.8132205383
  0
LINE
  5
99
330
1F
100
AcDbEntity
  8
0
  6
Continuous
 62
     1
370
    25
100
AcDbLine
 10
-38.0354957002
 20
89.8132205383
 30
0.0
 11
6.964506088
 21
89.8132205383
 31
0.0
  0
LINE
  5
9A
330
1F
100
AcDbEntity
  8
0
  6
Continuous
 62
     1
370
    25
100
AcDbLine
 10
-83.0354974883
 20
89.8132205383
 30
0.0
 11
-38.0354957002
 21
89.8132205383
 31
0.0
  0
LINE
  5
9B
330
1F
100
AcDbEntity
  8
0
  6
Continuous
 62
     7
370
    25
100
AcDbLine
 10
215.5151971268
 20
390.2686326643
 30
0.0
 11
144.6953926819
 21
390.2686326643
 31
0.0
  0
LINE
  5
9C
330
1F
100
AcDbEntity
  8
0
  6
Continuous
 62
     7
370
    25
100
AcDbLine
 10
144.6953926819
 20
300.2686290881
 30
0.0
 11
215.5151971268
 21
300.2686290881
 31
0.0
  0
LINE
  5
9D
330
1F
100
AcDbEntity
  8
0
  6
Continuous
 62
     7
370
    25
100
AcDbLine
 10
144.6953926819
 20
390.2686326643
 30
0.0
 11
131.5151982593
 21
390.2686326643
 31
0.0
  0
LINE
  5
9E
330
1F
100
AcDbEntity
  8
0
  6
Continuous
 62
     7
370
    25
100
AcDbLine
 10
131.5151982593
 20
300.2686290881
 30
0.0
 11
144.6953926819
 21
300.2686290881
 31
0.0
  0
CIRCLE
  5
9F
330
1F
100
AcDbEntity
  8
0
  6
Continuous
 62
     7
370
    25
100
AcDbCircle
 10
131.5151982593
 20
345.2686308762
 30
0.0
 40
39.59999999999997
  0
CIRCLE
  5
A0
330
1F
100
AcDbEntity
  8
0
  6
Continuous
 62
     7
370
    25
100
AcDbCircle
 10
131.5151982593
 20
345.2686308762
 30
0.0
 40
44.99999999999994
  0
LWPOLYLINE
  5
A1
330
1F
100
AcDbEntity
  8
0
  6
Continuous
 62
     7
370
    25
100
AcDbPolyline
 90
       48
 70
   128
 43
0.0
 10
215.5151971268
 20
390.2686326643
 10
217.6633485245
 20
390.165967389
 10
219.8016875075
 20
389.8584484001
 10
221.9204761671
 20
389.3474764069
 10
224.010036199
 20
388.6353834411
 10
226.0608383106
 20
387.7254179558
 10
228.0635245728
 20
386.6217336496
 10
230.008953123
 20
385.3293596646
 10
231.8882503199
 20
383.8542005857
 10
233.6928405451
 20
382.2029842874
 10
235.4144909071
 20
380.3832470318
 10
237.045348494
 20
378.4032887658
 10
238.5779627251
 20
376.2721414557
 10
240.0053524064
 20
373.9995355597
 10
241.32099828
 20
371.5958366981
 10
242.5188951777
 20
369.0720121255
 10
243.5935818242
 20
366.4395767143
 10
244.5401482867
 20
363.7105463883
 10
245.3542881297
 20
360.8973673424
 10
246.0322760629
 20
358.0128787896
 10
246.5710200953
 20
355.0702412492
 10
246.9680689858
 20
352.0828806674
 10
247.2215973424
 20
349.0644288128
 10
247.3304652261
 20
346.0286575015
 10
247.2941659974
 20
342.9894181779
 10
247.1128635692
 20
339.9605788169
 10
246.7873849558
 20
336.9559584996
 10
246.3192202734
 20
333.9892667597
 10
245.7105078386
 20
331.0740408366
 10
244.9640192675
 20
328.2235818794
 10
244.0831669258
 20
325.4508948764
 10
243.071959226
 20
322.7686299821
 10
241.9350155281
 20
320.1890303632
 10
240.6775288867
 20
317.723862349
 10
239.3052287983
 20
315.3843744537
 10
237.8243812012
 20
313.1812414965
 10
236.2417437719
 20
311.1245161733
 10
234.5645361232
 20
309.2235824903
 10
232.8004100012
 20
307.4871129235
 10
230.957412033
 20
305.9230348905
 10
229.0439539241
 20
304.5384785971
 10
227.0687752055
 20
303.3397658607
 10
225.0408761786
 20
302.3323654076
 10
222.9695104646
 20
301.5208705207
 10
220.8641328501
 20
300.9089915892
 10
218.7343545841
 20
300.4995114049
 10
216.5898837732
 20
300.2943037888
 10
215.5151971268
 20
300.2686290881
  0
LWPOLYLINE
  5
A2
330
1F
100
AcDbEntity
  8
0
  6
Continuous
 62
     1
370
    25
100
AcDbPolyline
 90
       25
 70
   128
 43
0.0
 10
176.5152000474
 20
345.2686308762
 10
176.4426053153
 20
342.2306922609
 10
176.2251563953
 20
339.2066149851
 10
175.8638442146
 20
336.2101972913
 10
175.3603190767
 20
333.2551116934
 10
174.7168757605
 20
330.3548400169
 10
173.9364497947
 20
327.5226182183
 10
173.0226062821
 20
324.771364673
 10
171.9795138227
 20
322.113638266
 10
170.8119258868
 20
319.5615610918
 10
169.5251770901
 20
317.1267802706
 10
168.1251347648
 20
314.8204027554
 10
166.6181877839
 20
312.6529543539
 10
165.0112093078
 20
310.6343238493
 10
163.3115381586
 20
308.7737238845
 10
161.5269248026
 20
307.0796406707
 10
159.6655127244
 20
305.5598041853
 10
157.735795586
 20
304.2211471936
 10
155.746578111
 20
303.0697866222
 10
153.7069369691
 20
302.1109639546
 10
151.6261779355
 20
301.3490638574
 10
149.5137949126
 20
300.787554576
 10
147.379427089
 20
300.4290065607
 10
145.2328133049
 20
300.2750477632
 10
144.6953926819
 20
300.2686290881
  0
LWPOLYLINE
  5
A3
330
1F
100
AcDbEntity
  8
0
  6
Continuous
 62
     1
370
    25
100
AcDbPolyline
 90
       25
 70
   128
 43
0.0
 10
144.6953926819
 20
390.2686326643
 10
145.2328133049
 20
390.2622139891
 10
147.379427089
 20
390.1082551917
 10
149.5137949126
 20
389.7497071763
 10
151.6261779355
 20
389.1881978949
 10
153.7069369691
 20
388.4262977978
 10
155.746578111
 20
387.4674751302
 10
157.735795586
 20
386.3161145588
 10
159.6655127244
 20
384.9774575671
 10
161.5269248026
 20
383.4576210817
 10
163.3115381586
 20
381.7635378679
 10
165.0112093078
 20
379.9029379031
 10
166.6181877839
 20
377.8843073984
 10
168.1251347648
 20
375.716858997
 10
169.5251770901
 20
373.4104814818
 10
170.8119258868
 20
370.9757006606
 10
171.9795138227
 20
368.4236234864
 10
173.0226062821
 20
365.7658970794
 10
173.9364497947
 20
363.0146435341
 10
174.7168757605
 20
360.1824217355
 10
175.3603190767
 20
357.282150059
 10
175.8638442146
 20
354.3270644611
 10
176.2251563953
 20
351.3306467673
 10
176.4426053153
 20
348.3065694915
 10
176.5152000474
 20
345.2686308762
  0
LWPOLYLINE
  5
A4
330
1F
100
AcDbEntity
  8
0
  6
Continuous
 62
     1
370
    25
100
AcDbPolyline
 90
       40
 70
   128
 43
0.0
 10
139.2359774212
 20
384.1086826166
 10
138.6759135524
 20
383.9428066155
 10
136.7183233263
 20
383.2277222415
 10
134.8023220083
 20
382.3147429963
 10
132.9378983822
 20
381.2086186251
 10
131.1347729819
 20
379.9151196023
 10
129.4023463154
 20
378.4409887036
 10
127.7496506112
 20
376.7939149281
 10
126.185302029
 20
374.9824832072
 10
124.7174566263
 20
373.016137152
 10
123.3537670808
 20
370.9051268985
 10
122.1013421776
 20
368.6604606798
 10
120.9667128163
 20
366.2938414952
 10
119.9557938265
 20
363.8176056435
 10
119.0738555627
 20
361.2446631184
 10
118.3254959645
 20
358.5884296214
 10
117.7146172734
 20
355.862752988
 10
117.24440275
 20
353.081843338
 10
116.9173064293
 20
350.2601995012
 10
116.735030769
 20
347.4125317177
 10
116.698528512
 20
344.5536865499
 10
116.8079887169
 20
341.6985687679
 10
117.0628404828
 20
338.8620638167
 10
117.4617566751
 20
336.0589598184
 10
118.0026548566
 20
333.3038701555
 10
118.6827177765
 20
330.6111595472
 10
119.4983989583
 20
327.9948658189
 10
120.445445052
 20
325.4686309835
 10
121.5189191165
 20
323.0456239423
 10
122.7132239031
 20
320.738475292
 10
124.0221344518
 20
318.5592177203
 10
125.4388260307
 20
316.5192096373
 10
126.9559118549
 20
314.6290867468
 10
128.5654833658
 20
312.8987080296
 10
130.2591486486
 20
311.337084963
 10
132.0280778339
 20
309.9523722073
 10
133.8630485
 20
308.7517781993
 10
135.7544943342
 20
307.7415651521
 10
137.6925533289
 20
306.927000626
 10
139.2359774212
 20
306.4285791358
  0
INSERT
  5
B0
330
1F
100
AcDbEntity
  8
FORMAT
 62
     7
100
AcDbBlockReference
  2
SW_CENTERMARKSYMBOL_0
 10
131.5151982593
 20
345.2686308762
 30
0.0
  0
LINE
  5
B1
330
1F
100
AcDbEntity
  8
0
  6
Continuous
 62
     7
370
    25
100
AcDbLine
 10
307.1681049486
 20
89.8132205383
 30
0.0
 11
307.1681049486
 21
-9.5471709593
 31
0.0
  0
LINE
  5
B2
330
1F
100
AcDbEntity
  8
0
  6
Continuous
 62
     7
370
    25
100
AcDbLine
 10
397.1681085248
 20
-9.5471709593
 30
0.0
 11
397.1681085248
 21
89.8132205383
 31
0.0
  0
LINE
  5
B3
330
1F
100
AcDbEntity
  8
0
  6
Continuous
 62
     7
370
    25
100
AcDbLine
 10
397.1681085248
 20
89.8132205383
 30
0.0
 11
397.1681085248
 21
121.6330260412
 31
0.0
  0
LINE
  5
B4
330
1F
100
AcDbEntity
  8
0
  6
Continuous
 62
     7
370
    25
100
AcDbLine
 10
307.1681049486
 20
121.6330260412
 30
0.0
 11
307.1681049486
 21
89.8132205383
 31
0.0
  0
LINE
  5
B5
330
1F
100
AcDbEntity
  8
0
  6
Continuous
 62
     7
370
    25
100
AcDbLine
 10
307.1681049486
 20
192.452836074
 30
0.0
 11
307.1681049486
 21
121.6330260412
 31
0.0
  0
LINE
  5
B6
330
1F
100
AcDbEntity
  8
0
  6
Continuous
 62
     7
370
    25
100
AcDbLine
 10
397.1681085248
 20
121.6330260412
 30
0.0
 11
397.1681085248
 21
192.452836074
 31
0.0
  0
LINE
  5
B7
330
1F
100
AcDbEntity
  8
0
  6
Continuous
 62
     7
370
    25
100
AcDbLine
 10
307.1681049486
 20
-9.5471709593
 30
0.0
 11
397.1681085248
 21
-9.5471709593
 31
0.0
  0
LWPOLYLINE
  5
B8
330
1F
100
AcDbEntity
  8
0
  6
Continuous
 62
     7
370
    25
100
AcDbPolyline
 90
       49
 70
   128
 43
0.0
 10
307.1681049486
 20
192.452836074
 10
307.1937796493
 20
193.5275227205
 10
307.3989872654
 20
195.6719786302
 10
307.8084674497
 20
197.8017717973
 10
308.4203463812
 20
199.9071419612
 10
309.2318412681
 20
201.9785076753
 10
310.2392417212
 20
204.0064067022
 10
311.4379544576
 20
205.9815854208
 10
312.8225107511
 20
207.8950435297
 10
314.386588784
 20
209.7380340473
 10
316.1230583509
 20
211.5021676199
 10
318.0239920338
 20
213.179367818
 10
320.080717357
 20
214.7620201484
 10
322.2838503142
 20
216.2428677455
 10
324.6233382096
 20
217.6151603834
 10
327.0885062237
 20
218.8726544754
 10
329.6681058426
 20
220.0095832721
 10
332.3503707369
 20
221.0207909719
 10
335.1230577399
 20
221.9016582147
 10
337.9735166972
 20
222.6481467859
 10
340.8887426202
 20
223.2568592207
 10
343.8554343601
 20
223.725023903
 10
346.8600546774
 20
224.0504950658
 10
349.8888940384
 20
224.2317974941
 10
352.9281333621
 20
224.2680967228
 10
355.9639046733
 20
224.1592288391
 10
358.9823565279
 20
223.9057004825
 10
361.9697171097
 20
223.5086590425
 10
364.9123546501
 20
222.9699075595
 10
367.7968432029
 20
222.2919196264
 10
370.6100222488
 20
221.4777797834
 10
373.3390525748
 20
220.5312133209
 10
375.971487986
 20
219.4565266744
 10
378.4953125586
 20
218.258622326
 10
380.8990114202
 20
216.9429839031
 10
383.1716173162
 20
215.5156016723
 10
385.3027646263
 20
213.98297254
 10
387.2827228923
 20
212.3521298543
 10
389.1024601479
 20
210.6304794923
 10
390.7536764462
 20
208.825874366
 10
392.2288355251
 20
206.9465846197
 10
393.5212095101
 20
205.0011486188
 10
394.6248938163
 20
202.9984772579
 10
395.5348593016
 20
200.9476751463
 10
396.2469522675
 20
198.8581151144
 10
396.7579242607
 20
196.7393190042
 10
397.0654432495
 20
194.6009725706
 10
397.1681085248
 20
192.452836074
 10
397.1681085248
 20
192.452836074
  0
LINE
  5
B9
330
1F
100
AcDbEntity
  8
0
  6
Continuous
 62
     1
370
    25
100
AcDbLine
 10
307.1681049486
 20
89.8132205383
 30
0.0
 11
397.1681085248
 21
89.8132205383
 31
0.0
  0
LWPOLYLINE
  5
BA
330
1F
100
AcDbEntity
  8
0
  6
Continuous
 62
     1
370
    25
100
AcDbPolyline
 90
       48
 70
   128
 43
0.0
 10
307.1681049486
 20
121.6330260412
 10
307.2258655746
 20
123.2446760313
 10
307.4822624047
 20
125.3863901273
 10
307.9425555487
 20
127.510967888
 10
308.6046364923
 20
129.6087384597
 10
309.4654877503
 20
131.6701203958
 10
310.5211828669
 20
133.6856961624
 10
311.7669013162
 20
135.6462866441
 10
313.1969620307
 20
137.542921342
 10
314.804842027
 20
139.3669724838
 10
316.5831987579
 20
141.1101103202
 10
318.5239222665
 20
142.7643776313
 10
320.6181575377
 20
144.3222344295
 10
322.8563454767
 20
145.7765579597
 10
325.2282769253
 20
147.1207172052
 10
327.7231299152
 20
148.3485877887
 10
330.3295180966
 20
149.4545668737
 10
333.0355522056
 20
150.4335880653
 10
335.8288829048
 20
151.2812108175
 10
338.6967659761
 20
151.9935459272
 10
341.6261163373
 20
152.5673598424
 10
344.6035667156
 20
153.0000299589
 10
347.6155323741
 20
153.289574422
 10
350.6482703677
 20
153.4346819297
 10
353.6879431057
 20
153.4346819297
 10
356.7206810993
 20
153.289574422
 10
359.7326467578
 20
153.0000299589
 10
362.7100971361
 20
152.5673598424
 10
365.6394474973
 20
151.9935459272
 10
368.5073305686
 20
151.2812108175
 10
371.3006612678
 20
150.4335880653
 10
374.0066953768
 20
149.4545668737
 10
376.6130835583
 20
148.3485877887
 10
379.1079365482
 20
147.1207172052
 10
381.4798679967
 20
145.7765579597
 10
383.7180559357
 20
144.3222344295
 10
385.8122912069
 20
142.7643776313
 10
387.7530147155
 20
141.1101103202
 10
389.5313714464
 20
139.3669724838
 10
391.1392514427
 20
137.542921342
 10
392.5693121572
 20
135.6462866441
 10
393.8150306066
 20
133.6856961624
 10
394.8707257231
 20
131.6701203958
 10
395.7315769811
 20
129.6087384597
 10
396.3936579247
 20
127.510967888
 10
396.8539510687
 20
125.3863901273
 10
397.1103478988
 20
123.2446760313
 10
397.1681085248
 20
121.6330260412
  0
LINE
  5
BB
330
1F
100
AcDbEntity
  8
0
  6
Continuous
 62
     7
370
    25
100
AcDbLine
 10
215.5151971268
 20
-113.6775281245
 30
0.0
 11
144.6953926819
 21
-113.6775281245
 31
0.0
  0
LINE
  5
BC
330
1F
100
AcDbEntity
  8
0
  6
Continuous
 62
     7
370
    25
100
AcDbLine
 10
144.6953926819
 20
-203.6775317008
 30
0.0
 11
215.5151971268
 21
-203.6775317008
 31
0.0
  0
LINE
  5
BD
330
1F
100
AcDbEntity
  8
0
  6
Continuous
 62
     7
370
    25
100
AcDbLine
 10
131.5151982593
 20
-203.6775317008
 30
0.0
 11
144.6953926819
 21
-203.6775317008
 31
0.0
  0
LINE
  5
BE
330
1F
100
AcDbEntity
  8
0
  6
Continuous
 62
     7
370
    25
100
AcDbLine
 10
144.6953926819
 20
-113.6775281245
 30
0.0
 11
131.5151982593
 21
-113.6775281245
 31
0.0
  0
LWPOLYLINE
  5
BF
330
1F
100
AcDbEntity
  8
0
  6
Continuous
 62
     7
370
    25
100
AcDbPolyline
 90
       94
 70
   128
 43
0.0
 10
215.5151971268
 20
-203.6775317008
 10
217.6633485245
 20
-203.5748664254
 10
219.8016875075
 20
-203.2673474366
 10
221.9204761671
 20
-202.7563754434
 10
224.010036199
 20
-202.0442824775
 10
226.0608383106
 20
-201.1343169922
 10
228.0635245728
 20
-200.0306326861
 10
230.008953123
 20
-198.738258701
 10
231.8882503199
 20
-197.2630996222
 10
233.6928405451
 20
-195.6118833238
 10
235.4144909071
 20
-193.7921460683
 10
237.045348494
 20
-191.8121878022
 10
238.5779627251
 20
-189.6810404921
 10
240.0053524064
 20
-187.4084345961
 10
241.32099828
 20
-185.0047357345
 10
242.5188951777
 20
-182.4809111619
 10
243.5935818242
 20
-179.8484757507
 10
244.5401482867
 20
-177.1194454247
 10
245.3542881297
 20
-174.3062663788
 10
246.0322760629
 20
-171.421777826
 10
246.5710200953
 20
-168.4791402856
 10
246.9680689858
 20
-165.4917797038
 10
247.2215973424
 20
-162.4733278493
 10
247.3304652261
 20
-159.437556538
 10
247.2941659974
 20
-156.3983172143
 10
247.1128635692
 20
-153.3694778534
 10
246.7873849558
 20
-150.364857536
 10
246.3192202734
 20
-147.3981657962
 10
245.7105078386
 20
-144.4829398731
 10
244.9640192675
 20
-141.6324809158
 10
244.0831669258
 20
-138.8597939128
 10
243.071959226
 20
-136.1775290186
 10
241.9350155281
 20
-133.5979293997
 10
240.6775288867
 20
-131.1327613855
 10
239.3052287983
 20
-128.7932734901
 10
237.8243812012
 20
-126.5901405329
 10
236.2417437719
 20
-124.5334152097
 10
234.5645361232
 20
-122.6324815268
 10
232.8004100012
 20
-120.89601196
 10
230.957412033
 20
-119.331933927
 10
229.0439539241
 20
-117.9473776335
 10
227.0687752055
 20
-116.7486648971
 10
225.0408761786
 20
-115.741264444
 10
222.9695104646
 20
-114.9297695572
 10
220.8641328501
 20
-114.3178906256
 10
218.7343545841
 20
-113.9084104413
 10
216.5898837732
 20
-113.7032028252
 10
214.4405104803
 20
-113.7032028252
 10
212.2960396694
 20
-113.9084104413
 10
210.1662614035
 20
-114.3178906256
 10
208.060883789
 20
-114.9297695572
 10
205.9895255255
 20
-115.741264444
 10
203.961619048
 20
-116.7486648971
 10
201.9864403295
 20
-117.9473776335
 10
200.0729822206
 20
-119.331933927
 10
198.2299917029
 20
-120.89601196
 10
196.4658655809
 20
-122.6324815268
 10
194.7886504816
 20
-124.5334152097
 10
193.2060130524
 20
-126.5901405329
 10
191.7251654552
 20
-128.7932734901
 10
190.3528690921
 20
-131.1327613855
 10
189.0953787254
 20
-133.5979293997
 10
187.9584387528
 20
-136.1775290186
 10
186.947231053
 20
-138.8597939128
 10
186.0663749861
 20
-141.6324809158
 10
185.3198864149
 20
-144.4829398731
 10
184.7111739801
 20
-147.3981657962
 10
184.2430092977
 20
-150.364857536
 10
183.9175344097
 20
-153.3694778534
 10
183.7362319814
 20
-156.3983172143
 10
183.6999327527
 20
-159.437556538
 10
183.8087969111
 20
-162.4733278493
 10
184.062328993
 20
-165.4917797038
 10
184.4593741583
 20
-168.4791402856
 10
184.9981181907
 20
-171.421777826
 10
185.6761098491
 20
-174.3062663788
 10
186.4902459668
 20
-177.1194454247
 10
187.4368161546
 20
-179.8484757507
 10
188.5115028011
 20
-182.4809111619
 10
189.7094034242
 20
-185.0047357345
 10
191.0250455724
 20
-187.4084345961
 10
192.4524315285
 20
-189.6810404921
 10
193.9850494849
 20
-191.8121878022
 10
195.6159033464
 20
-193.7921460683
 10
197.3375537085
 20
-195.6118833238
 10
199.1421439337
 20
-197.2630996222
 10
201.0214411305
 20
-198.738258701
 10
202.9668696808
 20
-200.0306326861
 10
204.9695559429
 20
-201.1343169922
 10
207.0203580545
 20
-202.0442824775
 10
209.1099180864
 20
-202.7563754434
 10
211.228706746
 20
-203.2673474366
 10
213.3670531796
 20
-203.5748664254
 10
215.5151971268
 20
-203.6775317008
  0
LWPOLYLINE
  5
C0
330
1F
100
AcDbEntity
  8
0
  6
Continuous
 62
     7
370
    25
100
AcDbPolyline
 90
       88
 70
   128
 43
0.0
 10
215.5151971268
 20
-198.2775296981
 10
213.4946816253
 20
-198.1743019039
 10
211.4846937942
 20
-197.8651549632
 10
209.4957166003
 20
-197.3517056519
 10
207.5381287025
 20
-196.636621278
 10
205.6221299457
 20
-195.7236420328
 10
203.7577041077
 20
-194.6175176615
 10
201.9545816468
 20
-193.3240186388
 10
200.2221502947
 20
-191.8498877401
 10
198.5694550561
 20
-190.2028139645
 10
197.0051088022
 20
-188.3913822437
 10
195.5372624682
 20
-186.4250361884
 10
194.173575251
 20
-184.314025935
 10
192.9211475538
 20
-182.0693597162
 10
191.7865172612
 20
-179.7027405316
 10
190.775600134
 20
-177.22650468
 10
189.8936600076
 20
-174.6535621548
 10
189.1453013407
 20
-171.9973286579
 10
188.534420787
 20
-169.2716520244
 10
188.0642071949
 20
-166.4907423744
 10
187.7371118056
 20
-163.6690985376
 10
187.5548370766
 20
-160.8214307541
 10
187.5183329569
 20
-157.9625855863
 10
187.6277931618
 20
-155.1074678043
 10
187.8826477217
 20
-152.2709628532
 10
188.2815629827
 20
-149.4678588549
 10
188.8224602329
 20
-146.7127691919
 10
189.5025231527
 20
-144.0200585837
 10
190.3182052659
 20
-141.4037648553
 10
191.2652485656
 20
-138.8775300199
 10
192.3387244927
 20
-136.4545229787
 10
193.5330302106
 20
-134.1473743284
 10
194.841937034
 20
-131.9681167567
 10
196.2586276816
 20
-129.9281086737
 10
197.7757149028
 20
-128.0379857833
 10
199.3852861809
 20
-126.3076070661
 10
201.0789521622
 20
-124.7459839994
 10
202.8478839087
 20
-123.3612712437
 10
204.682850151
 20
-122.1606772358
 10
206.5742992448
 20
-121.1504641885
 10
208.5123591708
 20
-120.3358996624
 10
210.4869269418
 20
-119.7212342138
 10
212.4877133059
 20
-119.3096678669
 10
214.5042799996
 20
-119.103346389
 10
216.5261142539
 20
-119.103346389
 10
218.5426883983
 20
-119.3096678669
 10
220.5434673118
 20
-119.7212342138
 10
222.5180350827
 20
-120.3358996624
 10
224.4560950088
 20
-121.1504641885
 10
226.3475441026
 20
-122.1606772358
 10
228.1825103449
 20
-123.3612712437
 10
229.9514420914
 20
-124.7459839994
 10
231.6451080727
 20
-126.3076070661
 10
233.2546793508
 20
-128.0379857833
 10
234.7717665719
 20
-129.9281086737
 10
236.1884572195
 20
-131.9681167567
 10
237.4973677682
 20
-134.1473743284
 10
238.6916734861
 20
-136.4545229787
 10
239.765145688
 20
-138.8775300199
 10
240.7121964382
 20
-141.4037648553
 10
241.5278711008
 20
-144.0200585837
 10
242.207937746
 20
-146.7127691919
 10
242.7488349961
 20
-149.4678588549
 10
243.1477539824
 20
-152.2709628532
 10
243.4026010918
 20
-155.1074678043
 10
243.5120650219
 20
-157.9625855863
 10
243.475557177
 20
-160.8214307541
 10
243.2932861732
 20
-163.6690985376
 10
242.9661907839
 20
-166.4907423744
 10
242.4959771918
 20
-169.2716520244
 10
241.8850966381
 20
-171.9973286579
 10
241.1367379712
 20
-174.6535621548
 10
240.2547978448
 20
-177.22650468
 10
239.2438807177
 20
-179.7027405316
 10
238.1092466997
 20
-182.0693597162
 10
236.8568264531
 20
-184.314025935
 10
235.4931317853
 20
-186.4250361884
 10
234.0252929019
 20
-188.3913822437
 10
232.4609391974
 20
-190.2028139645
 10
230.8082439589
 20
-191.8498877401
 10
229.0758200573
 20
-193.3240186388
 10
227.2726901459
 20
-194.6175176615
 10
225.4082717585
 20
-195.7236420328
 10
223.492265551
 20
-196.636621278
 10
221.5346776532
 20
-197.3517056519
 10
219.54570791
 20
-197.8651549632
 10
217.5357200788
 20
-198.1743019039
 10
215.5151971268
 20
-198.2775296981
  0
ARC
  5
C1
330
1F
100
AcDbEntity
  8
0
  6
Continuous
 62
     7
370
    25
100
AcDbCircle
 10
131.5151982593
 20
-158.6775299126
 30
0.0
 40
45.00000000000001
100
AcDbArc
 50
90.0
 51
270.0
  0
LWPOLYLINE
  5
C2
330
1F
100
AcDbEntity
  8
0
  6
Continuous
 62
     1
370
    25
100
AcDbPolyline
 90
       48
 70
   128
 43
0.0
 10
144.6953926819
 20
-113.6775281245
 10
143.0837464171
 20
-113.7352887506
 10
140.9420332523
 20
-113.9916855807
 10
138.8174461784
 20
-114.4519787246
 10
136.7196784007
 20
-115.1140596682
 10
134.6583020525
 20
-115.9749109263
 10
132.6427227935
 20
-117.0306060428
 10
130.6821370266
 20
-118.2763244921
 10
128.7854906289
 20
-119.7063852066
 10
126.9614373917
 20
-121.3142652029
 10
125.2183000209
 20
-123.0926219339
 10
123.5640317785
 20
-125.0333454425
 10
122.0061824309
 20
-127.1275807137
 10
120.551857038
 20
-129.3657686526
 10
119.2076940673
 20
-131.7377001012
 10
117.9798253464
 20
-134.2325530911
 10
116.873853712
 20
-136.8389412725
 10
115.8948260011
 20
-139.5449753815
 10
115.0472079056
 20
-142.3383060807
 10
114.3348672079
 20
-145.2061891521
 10
113.7610551553
 20
-148.1355395133
 10
113.3283906268
 20
-151.1129898915
 10
113.038844301
 20
-154.12495555
 10
112.8937405186
 20
-157.1576935437
 10
112.8937405186
 20
-160.1973662816
 10
113.038844301
 20
-163.2301042752
 10
113.3283906268
 20
-166.2420699338
 10
113.7610551553
 20
-169.219520312
 10
114.3348672079
 20
-172.1488706732
 10
115.0472079056
 20
-175.0167537445
 10
115.8948260011
 20
-177.8100844437
 10
116.873853712
 20
-180.5161185527
 10
117.9798253464
 20
-183.1225067342
 10
119.2076940673
 20
-185.6173597241
 10
120.551857038
 20
-187.9892911727
 10
122.0061824309
 20
-190.2274791116
 10
123.5640317785
 20
-192.3217143828
 10
125.2183000209
 20
-194.2624378914
 10
126.9614373917
 20
-196.0407946224
 10
128.7854906289
 20
-197.6486746187
 10
130.6821370266
 20
-199.0787353331
 10
132.6427227935
 20
-200.3244537825
 10
134.6583020525
 20
-201.380148899
 10
136.7196784007
 20
-202.241000157
 10
138.8174461784
 20
-202.9030811006
 10
140.9420332523
 20
-203.3633742446
 10
143.0837464171
 20
-203.6197710747
 10
144.6953926819
 20
-203.6775317008
  0
INSERT
  5
CE
330
1F
100
AcDbEntity
  8
FORMAT
 62
     7
100
AcDbBlockReference
  2
SW_CENTERMARKSYMBOL_1
 10
131.5151982593
 20
-158.6775299126
 30
0.0
  0
LINE
  5
CF
330
1F
100
AcDbEntity
  8
0
  6
Continuous
 62
     7
370
    25
100
AcDbLine
 10
304.4141634636
 20
-182.6911087189
 30
0.0
 11
304.4141634636
 21
-263.8229234617
 31
0.0
  0
LINE
  5
D0
330
1F
100
AcDbEntity
  8
0
  6
Continuous
 62
     7
370
    25
100
AcDbLine
 10
394.4141644521
 20
-263.8229234617
 30
0.0
 11
394.4141644521
 21
-182.6911087189
 31
0.0
  0
LINE
  5
D1
330
1F
100
AcDbEntity
  8
0
  6
Continuous
 62
     7
370
    25
100
AcDbLine
 10
369.839988715
 20
-42.0925389862
 30
0.0
 11
319.7628267253
 21
-128.8287344408
 31
0.0
  0
LINE
  5
D2
330
1F
100
AcDbEntity
  8
0
  6
Continuous
 62
     7
370
    25
100
AcDbLine
 10
397.705111556
 20
-173.8287314198
 30
0.0
 11
447.7822768384
 21
-87.0925401481
 31
0.0
  0
SPLINE
  5
D3
330
1F
100
AcDbEntity
  8
0
  6
Continuous
 62
     7
370
    25
100
AcDbSpline
210
0.0
220
0.0
230
1.0
 70
     8
 71
     3
 72
    22
 73
    18
 74
     0
 42
0.000000001
 43
0.00000001
 40
0.0
 40
0.0
 40
0.0
 40
0.0
 40
0.0411498580053845
 40
0.1119238309587101
 40
0.1828069852215784
 40
0.2538557485393588
 40
0.3251286503068929
 40
0.3966799273788092
 40
0.4685552119828744
 40
0.5407882997354385
 40
0.6133950814423942
 40
0.6863681601073865
 40
0.7596702951056022
 40
0.833229105788509
 40
0.9069130522787653
 40
0.980539598901986
 40
0.9999999999999999
 40
0.9999999999999999
 40
0.9999999999999999
 40
0.9999999999999999
 10
319.7628267253447
 20
-128.8287344407846
 30
0.0
 10
319.3695516380502
 20
-129.5191444114707
 30
0.0
 10
318.2998795535226
 20
-131.3969960638669
 30
0.0
 10
316.6510388718856
 20
-134.517472002792
 30
0.0
 10
314.851344122414
 20
-138.201765483538
 30
0.0
 10
313.1788080928563
 20
-141.9461161280059
 30
0.0
 10
311.6348689061502
 20
-145.745577937917
 30
0.0
 10
310.224207350286
 20
-149.5968892880357
 30
0.0
 10
308.9512853000554
 20
-153.4961117565446
 30
0.0
 10
307.8213309851072
 20
-157.4389335459858
 30
0.0
 10
306.8401108302433
 20
-161.4202528465133
 30
0.0
 10
306.013848117335
 20
-165.4338480613948
 30
0.0
 10
305.3492810352334
 20
-169.4719936210921
 30
0.0
 10
304.8526317727829
 20
-173.5248713852957
 30
0.0
 10
304.532296501541
 20
-177.5797007476072
 30
0.0
 10
304.4220340375406
 20
-180.634937556249
 30
0.0
 10
304.4155243532502
 20
-182.3355791042925
 30
0.0
 10
304.4141634635614
 20
-182.691108718906
 30
0.0
  0
SPLINE
  5
D4
330
1F
100
AcDbEntity
  8
0
  6
Continuous
 62
     7
370
    25
100
AcDbSpline
210
0.0
220
0.0
230
1.0
 70
     8
 71
     3
 72
    20
 73
    16
 74
     0
 42
0.000000001
 43
0.00000001
 40
0.0
 40
0.0
 40
0.0
 40
0.0
 40
0.0438607937063974
 40
0.1334422728367951
 40
0.2200822570417438
 40
0.3047074728637506
 40
0.3881337396983009
 40
0.4710435112111175
 40
0.5539752834857824
 40
0.6372891803046633
 40
0.7211511196534892
 40
0.805697421288946
 40
0.8909348498110816
 40
0.9767682074788276
 40
1.0
 40
1.0
 40
1.0
 40
1.0
 10
394.4143514787282
 20
-182.7133103620723
 30
0.0
 10
394.4142033182022
 20
-182.7182134349503
 30
0.0
 10
394.4137525539622
 20
-182.7331305655683
 30
0.0
 10
394.4233936794711
 20
-182.5771290044493
 30
0.0
 10
394.4620472269495
 20
-182.2567205077122
 30
0.0
 10
394.5416788713828
 20
-181.7743696036133
 30
0.0
 10
394.6729817226098
 20
-181.152067058337
 30
0.0
 10
394.8653351455863
 20
-180.3993723099542
 30
0.0
 10
395.1260254706602
 20
-179.5314107730305
 30
0.0
 10
395.4598444447217
 20
-178.564909585008
 30
0.0
 10
395.86918220373
 20
-177.5195218901222
 30
0.0
 10
396.3519779927827
 20
-176.4159810007739
 30
0.0
 10
396.9083825908381
 20
-175.280078707179
 30
0.0
 10
397.3664136152303
 20
-174.4083120211982
 30
0.0
 10
397.6491791104435
 20
-173.932863427172
 30
0.0
 10
397.7094105345562
 20
-173.831588885563
 30
0.0
  0
LWPOLYLINE
  5
D5
330
1F
100
AcDbEntity
  8
0
  6
Continuous
 62
     7
370
    25
100
AcDbPolyline
 90
       94
 70
   128
 43
0.0
 10
317.59435754
 20
-245.4537402157
 10
319.8150998481
 20
-244.2555497331
 10
322.170894159
 20
-243.1466396223
 10
324.6509931909
 20
-242.1320706066
 10
327.2440800212
 20
-241.2164719168
 10
329.9383245563
 20
-240.404020857
 10
332.721430453
 20
-239.6984248418
 10
335.5807069003
 20
-239.1029042882
 10
338.5030982533
 20
-238.6201755085
 10
341.475275571
 20
-238.2524404451
 10
344.4836741538
 20
-238.0013771671
 10
347.5145712511
 20
-237.8681315057
 10
350.5541374284
 20
-237.8533132529
 10
353.5884997869
 20
-237.9569870378
 10
356.6038144041
 20
-238.1786822102
 10
359.5863256023
 20
-238.5173859982
 10
362.5224252177
 20
-238.9715533924
 10
365.3987145038
 20
-239.5391094266
 10
368.2020673515
 20
-240.2174704681
 10
370.9196987776
 20
-241.0035350928
 10
373.5392024623
 20
-241.893720962
 10
376.0486324081
 20
-242.8839633019
 10
378.4365319162
 20
-243.9697468374
 10
380.6920117062
 20
-245.1461143939
 10
382.8047742
 20
-246.4077022053
 10
384.765187114
 20
-247.7487489431
 10
386.5642981119
 20
-249.1631406714
 10
388.1939040339
 20
-250.6444203988
 10
389.6465662906
 20
-252.1858304195
 10
390.9156559731
 20
-253.7803383555
 10
391.995385792
 20
-255.4206677594
 10
392.8808278589
 20
-257.0993357521
 10
393.5679373935
 20
-258.8086819151
 10
394.0535863093
 20
-260.5409059274
 10
394.3355553113
 20
-262.2881055827
 10
394.4125576035
 20
-264.0423087233
 10
394.2842441574
 20
-265.7955097366
 10
393.9511984434
 20
-267.5397106137
 10
393.4149403821
 20
-269.2669536432
 10
392.6779158081
 20
-270.969354867
 10
391.7434898835
 20
-272.6391504603
 10
390.6159247086
 20
-274.2687187821
 10
389.300364833
 20
-275.8506252346
 10
387.8028148655
 20
-277.3776534374
 10
386.1301032541
 20
-278.8428322196
 10
384.2898681274
 20
-280.2394802898
 10
382.2905022234
 20
-281.5612228205
 10
380.1411290178
 20
-282.8020295607
 10
377.8515557201
 20
-283.9562389291
 10
375.4322281632
 20
-285.0185840551
 10
372.8941890683
 20
-285.9842199142
 10
370.249012026
 20
-286.8487371087
 10
367.5087727669
 20
-287.6081936594
 10
364.6859717828
 20
-288.2591231794
 10
361.7934875702
 20
-288.7985557835
 10
358.8445226292
 20
-289.2240310136
 10
355.852525756
 20
-289.5336062029
 10
352.8311538464
 20
-289.7258694011
 10
349.7941915541
 20
-289.7999431769
 10
346.7554933386
 20
-289.7554906998
 10
343.7289268299
 20
-289.5927134597
 10
340.7283017065
 20
-289.3123543083
 10
337.7673064745
 20
-288.9156944171
 10
334.8594531501
 20
-288.4045395921
 10
332.0180114052
 20
-287.7812248353
 10
329.2559433713
 20
-287.0485949561
 10
326.5858535902
 20
-286.2099908854
 10
324.0199238184
 20
-285.2692394111
 10
321.5698600136
 20
-284.2306347394
 10
319.2468472252
 20
-283.0989124535
 10
317.0614762481
 20
-281.8792406273
 10
315.0237270775
 20
-280.5771798596
 10
313.1428910355
 20
-279.1986748159
 10
311.4275551308
 20
-277.7500117439
 10
309.8855408967
 20
-276.237804455
 10
308.523889491
 20
-274.6689492267
 10
307.3488063785
 20
-273.0506080751
 10
306.3656639655
 20
-271.3901616138
 10
305.5789377203
 20
-269.6951873843
 10
304.9922219789
 20
-267.9734203185
 10
304.6081930661
 20
-266.2327162419
 10
304.4286053446
 20
-264.4810161383
 10
304.4542740925
 20
-262.7263119341
 10
304.6850873571
 20
-260.9766122832
 10
305.119988833
 20
-259.2399007483
 10
305.7569936673
 20
-257.5240993047
 10
306.5931950442
 20
-255.8370386867
 10
307.6247786742
 20
-254.1864135282
 10
308.8470392567
 20
-252.5797606926
 10
310.2543982611
 20
-251.0244064291
 10
311.8404335614
 20
-249.5274492657
 10
313.5979090705
 20
-248.0957185698
 10
315.5188058567
 20
-246.7357474619
 10
317.59435754
 20
-245.4537402157
  0
LWPOLYLINE
  5
D6
330
1F
100
AcDbEntity
  8
0
  6
Continuous
 62
     7
370
    25
100
AcDbPolyline
 90
       88
 70
   128
 43
0.0
 10
321.4127355746
 20
-247.6580429352
 10
319.4652084009
 20
-248.86660245
 10
317.6738221302
 20
-250.1531378018
 10
316.0479126185
 20
-251.5109395666
 10
314.5959635654
 20
-252.932932597
 10
313.3255357206
 20
-254.4116986427
 10
312.2432606271
 20
-255.9395316646
 10
311.3547760845
 20
-257.5084659682
 10
310.6647175877
 20
-259.1103206827
 10
310.1766794724
 20
-260.7367434807
 10
309.8932063548
 20
-262.3792565792
 10
309.8157773257
 20
-264.0292962764
 10
309.9447980486
 20
-265.6782600935
 10
310.2795915398
 20
-267.3175516343
 10
310.8184139733
 20
-268.9386231643
 10
311.5584586325
 20
-270.5330235123
 10
312.4958651295
 20
-272.0924414091
 10
313.6257464054
 20
-273.6087454062
 10
314.9422117797
 20
-275.074030636
 10
316.4383979015
 20
-276.4806579694
 10
318.1065049697
 20
-277.8212931735
 10
319.9378355869
 20
-279.0889475897
 10
321.9228425864
 20
-280.2770118259
 10
324.0511737309
 20
-281.3792937263
 10
326.3117397071
 20
-282.3900424172
 10
328.6927482055
 20
-283.3039923113
 10
331.1817902719
 20
-284.1163764611
 10
333.7658873111
 20
-284.8229597769
 10
336.4315648439
 20
-285.4200603156
 10
339.1649302154
 20
-285.9045606859
 10
341.9517272542
 20
-286.2739396028
 10
344.7774350537
 20
-286.5262680855
 10
347.6273127538
 20
-286.6602322676
 10
350.4865075416
 20
-286.6751333973
 10
353.3401126036
 20
-286.57089392
 10
356.173246151
 20
-286.3480559576
 10
358.9711462501
 20
-286.0077843499
 10
361.7192142864
 20
-285.5518491669
 10
364.4031335021
 20
-284.9826302706
 10
367.0089078508
 20
-284.303094885
 10
369.5229509009
 20
-283.5167858113
 10
371.9321539946
 20
-282.6278003277
 10
374.2239593466
 20
-281.6407753636
 10
376.3864183255
 20
-280.5608568954
 10
378.4082566492
 20
-279.3936744753
 10
380.2789329958
 20
-278.1453134789
 10
381.9886956383
 20
-276.8222824107
 10
383.5286305181
 20
-275.4314790688
 10
384.890705368
 20
-273.9801529084
 10
386.0678227244
 20
-272.4758713964
 10
387.0538456111
 20
-270.9264778129
 10
387.8436340883
 20
-269.3400519036
 10
388.4330656672
 20
-267.7248585567
 10
388.8190741648
 20
-266.0893253731
 10
388.9996418005
 20
-264.4419742357
 10
388.97382949
 20
-262.7913962182
 10
388.7417715762
 20
-261.146196841
 10
388.3046784641
 20
-259.5149504504
 10
387.6648260835
 20
-257.9061667639
 10
386.8255558891
 20
-256.3282285222
 10
385.7912353481
 20
-254.7893656382
 10
384.5672645256
 20
-253.2975981706
 10
383.160021425
 20
-251.8607047708
 10
381.5768422323
 20
-250.4861778223
 10
379.8259844369
 20
-249.1811808619
 10
377.9165692919
 20
-247.9525214449
 10
375.8585586824
 20
-246.8066012957
 10
373.662678899
 20
-245.7493966336
 10
371.340378985
 20
-244.7864189208
 10
368.903764964
 20
-243.9226890576
 10
366.3655414767
 20
-243.1627097737
 10
363.7389413164
 20
-242.5104431969
 10
361.0376575991
 20
-241.969289945
 10
358.2757759333
 20
-241.5420712569
 10
355.4676934189
 20
-241.231015687
 10
352.6280495005
 20
-241.0377435185
 10
349.7716508927
 20
-240.9632614405
 10
346.913388604
 20
-241.0079602676
 10
344.0681641794
 20
-241.1716058151
 10
341.2508119926
 20
-241.453344222
 10
338.476017586
 20
-241.8517065129
 10
335.7582491826
 20
-242.3646177217
 10
333.1116780016
 20
-242.9894018343
 10
330.550102526
 20
-243.7228042182
 10
328.0868714531
 20
-244.5609965651
 10
325.7348349618
 20
-245.4996141472
 10
323.5062488947
 20
-246.5337594289
 10
321.4127355746
 20
-247.6580429352
  0
LWPOLYLINE
  5
D7
330
1F
100
AcDbEntity
  8
0
  6
Continuous
 62
     7
370
    25
100
AcDbPolyline
 90
       94
 70
   128
 43
0.0
 10
376.9913263589
 20
-46.2233502375
 10
378.5828940916
 20
-47.1424277924
 10
380.3123768494
 20
-48.1411267781
 10
382.1718984399
 20
-49.2148929898
 10
384.1529662731
 20
-50.3588163914
 10
386.2465451184
 20
-51.5676858747
 10
388.4430808121
 20
-52.835972529
 10
390.732552941
 20
-54.1579208984
 10
393.1045117207
 20
-55.5274668546
 10
395.548135948
 20
-56.9383805632
 10
398.0522751472
 20
-58.3842178154
 10
400.6055075224
 20
-59.8583839066
 10
403.1961781528
 20
-61.3541496056
 10
405.8124701159
 20
-62.8646983056
 10
408.4424439997
 20
-64.3831184144
 10
411.0740984891
 20
-65.9025052582
 10
413.6954296348
 20
-67.4159101289
 10
416.2944690489
 20
-68.9164292553
 10
418.8593708327
 20
-70.3972235743
 10
421.3784221138
 20
-71.851530894
 10
423.8401306318
 20
-73.2727225472
 10
426.23326952
 20
-74.6542988254
 10
428.5469089152
 20
-75.9899680617
 10
430.7705046143
 20
-77.2736369822
 10
432.893903919
 20
-78.4994444917
 10
434.9074165938
 20
-79.6617965582
 10
436.8018558604
 20
-80.7553837934
 10
438.5685812858
 20
-81.775242714
 10
440.1995326142
 20
-82.7166779313
 10
441.6872643416
 20
-83.5754281173
 10
443.0249934596
 20
-84.3475658101
 10
444.2066093335
 20
-85.0295639472
 10
445.2267211182
 20
-85.6183110729
 10
446.0806808064
 20
-86.1111307227
 10
446.7645858634
 20
-86.5057525203
 10
447.2753187394
 20
-86.8003958252
 10
447.6105495041
 20
-86.9937104103
 10
447.7687477
 20
-87.084819803
 10
447.7491915623
 20
-87.0732901017
 10
447.5519653847
 20
-86.9591953706
 10
447.1779753244
 20
-86.7430415884
 10
446.6289309631
 20
-86.4258229188
 10
445.9073295014
 20
-86.0089821596
 10
445.016466296
 20
-85.4944229077
 10
443.9604032496
 20
-84.8844973877
 10
442.7439688104
 20
-84.1819699443
 10
441.3727026549
 20
-83.3900702713
 10
439.8528662241
 20
-82.5124021535
 10
438.1913926748
 20
-81.5529814855
 10
436.3958658054
 20
-80.516151098
 10
434.4744752755
 20
-79.4066826549
 10
432.4359902637
 20
-78.2296093533
 10
430.2897041502
 20
-76.9903217337
 10
428.0454239796
 20
-75.6944642624
 10
425.7133756313
 20
-74.3479474909
 10
423.3042143552
 20
-72.9569237248
 10
420.8289194054
 20
-71.5277261832
 10
418.2987861374
 20
-70.0669009385
 10
415.7253680559
 20
-68.5810761185
 10
413.1204004242
 20
-67.0770638057
 10
410.4957726047
 20
-65.5617193548
 10
407.8634556196
 20
-64.041945194
 10
405.2354652718
 20
-62.5246969124
 10
402.6237857545
 20
-61.0168722318
 10
400.0403406744
 20
-59.525355117
 10
397.4969146854
 20
-58.0569674879
 10
395.0051139761
 20
-56.6184007812
 10
392.5763037076
 20
-55.2162163327
 10
390.2215708058
 20
-53.8568178146
 10
387.9516577781
 20
-52.5464008574
 10
385.7769236119
 20
-51.2909487293
 10
383.7072877162
 20
-50.0961908463
 10
381.7521941955
 20
-48.9675699827
 10
379.9205645991
 20
-47.9102423697
 10
378.2207551983
 20
-46.9290408648
 10
376.6605262817
 20
-46.0284268108
 10
375.2469894712
 20
-45.2125204574
 10
373.9865998203
 20
-44.4850355675
 10
372.8851051054
 20
-43.8492988147
 10
371.9475352894
 20
-43.308213284
 10
371.178163009
 20
-42.8642356645
 10
370.5805022579
 20
-42.5193998292
 10
370.1572780931
 20
-42.2752902235
 10
369.9104240014
 20
-42.1329916785
 10
369.8410660938
 20
-42.0931806738
 10
369.9495178376
 20
-42.1560401695
 10
370.2352866414
 20
-42.3212542876
 10
370.6970659529
 20
-42.588098052
 10
371.3327563323
 20
-42.9553278859
 10
372.139449647
 20
-43.4212941655
 10
373.1134659502
 20
-43.9838590935
 10
374.2503640179
 20
-44.6404636249
 10
375.5449545193
 20
-45.3880985723
 10
376.9913263589
 20
-46.2233502375
  0
LWPOLYLINE
  5
D8
330
1F
100
AcDbEntity
  8
0
  6
Continuous
 62
     7
370
    25
100
AcDbPolyline
 90
       88
 70
   128
 43
0.0
 10
380.8097043934
 20
-48.4276529569
 10
379.4539772541
 20
-47.6447462996
 10
378.2513011268
 20
-46.9501894242
 10
377.2079453552
 20
-46.3476090205
 10
376.3293626878
 20
-45.8401481869
 10
375.6201207895
 20
-45.4304633846
 10
375.0839206802
 20
-45.1206681571
 10
374.7235624912
 20
-44.912404612
 10
374.540916489
 20
-44.8067293418
 10
374.5369415144
 20
-44.8042214087
 10
374.7116573236
 20
-44.9048690259
 10
375.0641498569
 20
-45.1081699344
 10
375.5925870436
 20
-45.4130431838
 10
376.2942056307
 20
-45.8179127755
 10
377.1653533306
 20
-46.3206741981
 10
378.2014901373
 20
-46.9186830122
 10
379.3972094004
 20
-47.6088400164
 10
380.7462806304
 20
-48.3875490366
 10
382.2416672792
 20
-49.2507302262
 10
383.8755761311
 20
-50.1939094154
 10
385.6394882542
 20
-51.2121508037
 10
387.5242057576
 20
-52.3001417457
 10
389.5199022516
 20
-53.4522370902
 10
391.6161754494
 20
-54.6623952483
 10
393.8020967228
 20
-55.9243345582
 10
396.0662662545
 20
-57.2314677849
 10
398.3968809515
 20
-58.5769747882
 10
400.7817919846
 20
-59.9538418246
 10
403.208565375
 20
-61.3549026076
 10
405.6645438973
 20
-62.7728345024
 10
408.1369307145
 20
-64.2002585236
 10
410.6128328423
 20
-65.6297187991
 10
413.07933754
 20
-67.0537844704
 10
415.5235926529
 20
-68.4650048236
 10
417.9328540277
 20
-69.856043128
 10
420.2945553182
 20
-71.2196439366
 10
422.5963922787
 20
-72.5486908787
 10
424.8263556917
 20
-73.8362439253
 10
426.9728209294
 20
-75.0756215153
 10
429.024605906
 20
-76.2603427656
 10
430.9710053222
 20
-77.384232412
 10
432.8018696898
 20
-78.4414299392
 10
434.5076606504
 20
-79.4264215209
 10
436.0794799504
 20
-80.3340871706
 10
437.509132662
 20
-81.1596764111
 10
438.7891745981
 20
-81.8988964913
 10
439.9129175807
 20
-82.5478850102
 10
440.8745137346
 20
-83.1032646791
 10
441.6689449505
 20
-83.5621372388
 10
442.2920729349
 20
-83.9221123627
 10
442.7406418436
 20
-84.1813152655
 10
443.0123256974
 20
-84.3383775859
 10
443.1056941378
 20
-84.3925027888
 10
443.0202703784
 20
-84.343408376
 10
442.756494327
 20
-84.1913350204
 10
442.3157423416
 20
-83.9370762264
 10
441.7003140596
 20
-83.5819768178
 10
440.9134152758
 20
-83.1278622199
 10
439.9591500394
 20
-82.5771251584
 10
438.842498264
 20
-81.9326153998
 10
437.5692683123
 20
-81.1977158015
 10
436.1461141179
 20
-80.3762305339
 10
434.5804436479
 20
-79.4724599875
 10
432.8804281227
 20
-78.491114851
 10
431.0549203561
 20
-77.4373115509
 10
429.1134498986
 20
-76.3165268709
 10
427.0661261494
 20
-75.1346393507
 10
424.9236358864
 20
-73.8977696938
 10
422.6971410274
 20
-72.6123981651
 10
420.3982497364
 20
-71.2852201577
 10
418.0389475236
 20
-69.9231368336
 10
415.6315373174
 20
-68.53327528
 10
413.1885663662
 20
-67.1228611354
 10
410.7227768479
 20
-65.6992509134
 10
408.2470169657
 20
-64.2698867568
 10
405.7742034117
 20
-62.8421895978
 10
403.3172159992
 20
-61.4236199935
 10
400.8888805413
 20
-60.0215769905
 10
398.5018397752
 20
-58.6433600981
 10
396.168550729
 20
-57.2961556065
 10
393.9011740854
 20
-55.9869970388
 10
391.7115267673
 20
-54.7227134402
 10
389.6110358388
 20
-53.509866262
 10
387.6106410414
 20
-52.3548208393
 10
385.7207763541
 20
-51.2635593222
 10
383.9512988713
 20
-50.2417916944
 10
382.3114229477
 20
-49.2948447488
 10
380.8097043934
 20
-48.4276529569
  0
LWPOLYLINE
  5
D9
330
1F
100
AcDbEntity
  8
0
  6
Continuous
 62
     1
370
    25
100
AcDbPolyline
 90
       13
 70
   128
 43
0.0
 10
381.2339703756
 20
-164.321925473
 10
383.309522059
 20
-165.6039327191
 10
385.2304188451
 20
-166.963903827
 10
386.9878943543
 20
-168.3956345229
 10
388.5739296546
 20
-169.8925916864
 10
389.981288659
 20
-171.4479459498
 10
391.2035492414
 20
-173.0545987855
 10
392.2351328714
 20
-174.705223944
 10
393.0713342484
 20
-176.3922845619
 10
393.7083390826
 20
-178.1080860056
 10
394.1432405586
 20
-179.8447975405
 10
394.3740538232
 20
-181.5944971914
 10
394.4141644521
 20
-182.6911087189
  0
LWPOLYLINE
  5
DA
330
1F
100
AcDbEntity
  8
0
  6
Continuous
 62
     1
370
    25
100
AcDbPolyline
 90
       36
 70
   128
 43
0.0
 10
304.4141634636
 20
-182.6911087189
 10
304.4927726044
 20
-181.1562908399
 10
304.7747416064
 20
-179.4090911847
 10
305.2603905221
 20
-177.6768671723
 10
305.9475000567
 20
-175.9675210094
 10
306.8329421236
 20
-174.2888530167
 10
307.9126719426
 20
-172.6485236127
 10
309.181761625
 20
-171.0540156768
 10
310.6344238817
 20
-169.512605656
 10
312.2640298038
 20
-168.0313259287
 10
314.0631408016
 20
-166.6169342003
 10
316.0235537156
 20
-165.2758874626
 10
318.1363162094
 20
-164.0142996511
 10
320.3917959995
 20
-162.8379320946
 10
322.7796955076
 20
-161.7521485591
 10
325.2891254534
 20
-160.7619062193
 10
327.908629138
 20
-159.8717203501
 10
330.6262605642
 20
-159.0856557254
 10
333.4296134119
 20
-158.4072946839
 10
336.305902698
 20
-157.8397386496
 10
339.2420023134
 20
-157.3855712555
 10
342.2245135115
 20
-157.0468674675
 10
345.2398281287
 20
-156.8251722951
 10
348.2741904873
 20
-156.7214985102
 10
351.3137566645
 20
-156.7363167629
 10
354.3446537619
 20
-156.8695624243
 10
357.3530523446
 20
-157.1206257024
 10
360.3252296624
 20
-157.4883607657
 10
363.2476210153
 20
-157.9710895455
 10
366.1068974626
 20
-158.5666100991
 10
368.8900033594
 20
-159.2722061143
 10
371.5842478944
 20
-160.084657174
 10
374.1773347247
 20
-161.0002558638
 10
376.6574337566
 20
-162.0148248795
 10
379.0132280675
 20
-163.1237349904
 10
381.2339703756
 20
-164.321925473
  0
LWPOLYLINE
  5
DB
330
1F
100
AcDbEntity
  8
0
  6
Continuous
 62
     1
370
    25
100
AcDbPolyline
 90
       16
 70
   128
 43
0.0
 10
381.2339703756
 20
-164.321925473
 10
383.330785144
 20
-165.5323842818
 10
385.3153710867
 20
-166.6780355464
 10
387.1786720641
 20
-167.7536453166
 10
388.9121870898
 20
-168.7543154219
 10
390.5080057274
 20
-169.6754734852
 10
391.9588444743
 20
-170.5129273872
 10
393.2580895683
 20
-171.2628443479
 10
394.3998081818
 20
-171.9218030138
 10
395.3787899107
 20
-172.4868021972
 10
396.1905711402
 20
-172.9552597324
 10
396.831446899
 20
-173.3250466891
 10
397.2984919325
 20
-173.594466076
 10
397.5895738733
 20
-173.7622908575
 10
397.7033677302
 20
-173.8277571063
 10
397.705111556
 20
-173.8287314198
  0
LWPOLYLINE
  5
DC
330
1F
100
AcDbEntity
  8
0
  6
Continuous
 62
     1
370
    25
100
AcDbPolyline
 90
       34
 70
   128
 43
0.0
 10
319.7628267253
 20
-128.8287344408
 10
319.774350925
 20
-128.8354753325
 10
319.9272084895
 20
-128.9239584672
 10
320.2571343901
 20
-129.1146627673
 10
320.762621918
 20
-129.4067385255
 10
321.4413625043
 20
-129.7988317414
 10
322.2902619365
 20
-130.2891690599
 10
323.3054458326
 20
-130.875502904
 10
324.4822793564
 20
-131.5551487646
 10
325.8153993213
 20
-132.325027505
 10
327.2987148492
 20
-133.1816193579
 10
328.9254653223
 20
-134.1210095538
 10
330.6882230169
 20
-135.1389111411
 10
332.5789503975
 20
-136.2306836172
 10
334.5890139454
 20
-137.391340158
 10
336.7092480382
 20
-138.615595907
 10
338.9299720717
 20
-139.8978611356
 10
341.2410615826
 20
-141.2322792644
 10
343.6319653707
 20
-142.6127626097
 10
346.0917753049
 20
-144.033018998
 10
348.6092671526
 20
-145.4865616534
 10
351.1729598487
 20
-146.9667631906
 10
353.7711497404
 20
-148.4668662607
 10
356.3919843435
 20
-149.9800246163
 10
359.0235031727
 20
-151.499341894
 10
361.6537035958
 20
-153.0178792176
 10
364.2705777122
 20
-154.5287099494
 10
366.8621926955
 20
-156.0249387008
 10
369.4167204278
 20
-157.4997336497
 10
371.9225053297
 20
-158.9463809095
 10
374.3681124345
 20
-160.3582666575
 10
376.7423859982
 20
-161.728956599
 10
379.0344911526
 20
-163.0521865531
 10
381.2339703756
 20
-164.321925473
  0
ENDSEC
  0
SECTION
  2
OBJECTS
  0
DICTIONARY
  5
C
330
0
100
AcDbDictionary
281
     1
  3
ACAD_GROUP
350
D
  3
ACAD_LAYOUT
350
1A
  3
ACAD_MLINESTYLE
350
17
  3
ACAD_PLOTSETTINGS
350
19
  3
ACAD_PLOTSTYLENAME
350
E
  3
ACAD_SCALELIST
350
47
  0
DICTIONARY
  5
D
102
{ACAD_REACTORS
330
C
102
}
330
C
100
AcDbDictionary
281
     1
  0
DICTIONARY
  5
1A
102
{ACAD_REACTORS
330
C
102
}
330
C
100
AcDbDictionary
281
     1
  3
Layout1
350
1E
  3
Layout2
350
26
  3
Model
350
22
  0
DICTIONARY
  5
17
102
{ACAD_REACTORS
330
C
102
}
330
C
100
AcDbDictionary
281
     1
  3
Standard
350
18
  0
DICTIONARY
  5
19
102
{ACAD_REACTORS
330
C
102
}
330
C
100
AcDbDictionary
281
     1
  0
ACDBDICTIONARYWDFLT
  5
E
102
{ACAD_REACTORS
330
C
102
}
330
C
100
AcDbDictionary
281
     1
  3
Normal
350
F
100
AcDbDictionaryWithDefault
340
F
  0
DICTIONARY
  5
47
102
{ACAD_REACTORS
330
C
102
}
330
C
100
AcDbDictionary
281
     1
  3
A0
350
48
  3
A1
350
49
  3
A2
350
4A
  3
A3
350
4B
  3
A4
350
4C
  3
A5
350
4D
  3
A6
350
4E
  3
A7
350
4F
  3
A8
350
50
  3
A9
350
51
  3
B0
350
52
  3
B1
350
53
  3
B2
350
54
  3
B3
350
55
  3
B4
350
56
  3
B5
350
57
  3
B6
350
58
  3
B7
350
59
  3
B8
350
5A
  3
B9
350
5B
  3
C0
350
5C
  3
C1
350
5D
  3
C2
350
5E
  3
C3
350
5F
  3
C4
350
60
  3
C5
350
61
  3
C6
350
62
  3
C7
350
63
  3
C8
350
64
  3
C9
350
65
  3
D0
350
66
  3
D1
350
67
  3
D2
350
68
  0
LAYOUT
  5
1E
102
{ACAD_REACTORS
330
1A
102
}
330
1A
100
AcDbPlotSettings
  1

  2
none_device
  4

  6

 40
0.0
 41
0.0
 42
0.0
 43
0.0
 44
0.0
 45
0.0
 46
0.0
 47
0.0
 48
0.0
 49
0.0
140
0.0
141
0.0
142
1.0
143
1.0
 70
   688
 72
     1
 73
     0
 74
     5
  7

 75
    16
147
1.0
148
0.0
149
0.0
100
AcDbLayout
  1
Layout1
 70
     1
 71
     1
 10
0.0
 20
0.0
 11
420.0
 21
297.0
 12
0.0
 22
0.0
 32
0.0
 14
1.0000000000E+20
 24
1.0000000000E+20
 34
1.0000000000E+20
 15
-1.0000000000E+20
 25
-1.0000000000E+20
 35
-1.0000000000E+20
146
0.0
 13
0.0
 23
0.0
 33
0.0
 16
1.0
 26
0.0
 36
0.0
 17
0.0
 27
1.0
 37
0.0
 76
     0
330
1B
  0
LAYOUT
  5
26
102
{ACAD_REACTORS
330
1A
102
}
330
1A
100
AcDbPlotSettings
  1

  2
none_device
  4

  6

 40
0.0
 41
0.0
 42
0.0
 43
0.0
 44
0.0
 45
0.0
 46
0.0
 47
0.0
 48
0.0
 49
0.0
140
0.0
141
0.0
142
1.0
143
1.0
 70
   688
 72
     1
 73
     0
 74
     5
  7

 75
    16
147
1.0
148
0.0
149
0.0
100
AcDbLayout
  1
Layout2
 70
     1
 71
     2
 10
0.0
 20
0.0
 11
0.0
 21
0.0
 12
0.0
 22
0.0
 32
0.0
 14
0.0
 24
0.0
 34
0.0
 15
0.0
 25
0.0
 35
0.0
146
0.0
 13
0.0
 23
0.0
 33
0.0
 16
1.0
 26
0.0
 36
0.0
 17
0.0
 27
1.0
 37
0.0
 76
     0
330
23
  0
LAYOUT
  5
22
102
{ACAD_REACTORS
330
1A
102
}
330
1A
100
AcDbPlotSettings
  1

  2
none_device
  4
Letter_(8.50_x_11.00_Inches)
  6

 40
6.35
 41
6.35
 42
6.35000508
 43
6.35000508
 44
215.9
 45
279.4
 46
0.0
 47
0.0
 48
0.0
 49
0.0
140
0.0
141
0.0
142
1.0
143
1.0
 70
  1712
 72
     1
 73
     0
 74
     0
  7

 75
     0
147
1.0
148
0.0
149
0.0
100
AcDbLayout
  1
Model
 70
     1
 71
     0
 10
0.0
 20
0.0
 11
279.4
 21
215.9
 12
0.0
 22
0.0
 32
0.0
 14
0.0
 24
0.0
 34
0.0
 15
279.4
 25
215.9
 35
0.0
146
0.0
 13
0.0
 23
0.0
 33
0.0
 16
1.0
 26
0.0
 36
0.0
 17
0.0
 27
1.0
 37
0.0
 76
     0
330
1F
331
29
  0
MLINESTYLE
  5
18
102
{ACAD_REACTORS
330
17
102
}
330
17
100
AcDbMlineStyle
  2
Standard
 70
     0
  3

 62
   256
 51
90.0
 52
90.0
 71
     2
 49
0.5
 62
   256
  6
BYLAYER
 49
-0.5
 62
   256
  6
BYLAYER
  0
ACDBPLACEHOLDER
  5
F
102
{ACAD_REACTORS
330
E
102
}
330
E
  0
SCALE
  5
48
102
{ACAD_REACTORS
330
47
102
}
330
47
100
AcDbScale
 70
     0
300
1:1
140
1.0
141
1.0
290
     1
  0
SCALE
  5
49
102
{ACAD_REACTORS
330
47
102
}
330
47
100
AcDbScale
 70
     0
300
1:2
140
1.0
141
2.0
290
     0
  0
SCALE
  5
4A
102
{ACAD_REACTORS
330
47
102
}
330
47
100
AcDbScale
 70
     0
300
1:4
140
1.0
141
4.0
290
     0
  0
SCALE
  5
4B
102
{ACAD_REACTORS
330
47
102
}
330
47
100
AcDbScale
 70
     0
300
1:5
140
1.0
141
5.0
290
     0
  0
SCALE
  5
4C
102
{ACAD_REACTORS
330
47
102
}
330
47
100
AcDbScale
 70
     0
300
1:8
140
1.0
141
8.0
290
     0
  0
SCALE
  5
4D
102
{ACAD_REACTORS
330
47
102
}
330
47
100
AcDbScale
 70
     0
300
1:10
140
1.0
141
10.0
290
     0
  0
SCALE
  5
4E
102
{ACAD_REACTORS
330
47
102
}
330
47
100
AcDbScale
 70
     0
300
1:16
140
1.0
141
16.0
290
     0
  0
SCALE
  5
4F
102
{ACAD_REACTORS
330
47
102
}
330
47
100
AcDbScale
 70
     0
300
1:20
140
1.0
141
20.0
290
     0
  0
SCALE
  5
50
102
{ACAD_REACTORS
330
47
102
}
330
47
100
AcDbScale
 70
     0
300
1:30
140
1.0
141
30.0
290
     0
  0
SCALE
  5
51
102
{ACAD_REACTORS
330
47
102
}
330
47
100
AcDbScale
 70
     0
300
1:40
140
1.0
141
40.0
290
     0
  0
SCALE
  5
52
102
{ACAD_REACTORS
330
47
102
}
330
47
100
AcDbScale
 70
     0
300
1:50
140
1.0
141
50.0
290
     0
  0
SCALE
  5
53
102
{ACAD_REACTORS
330
47
102
}
330
47
100
AcDbScale
 70
     0
300
1:100
140
1.0
141
100.0
290
     0
  0
SCALE
  5
54
102
{ACAD_REACTORS
330
47
102
}
330
47
100
AcDbScale
 70
     0
300
2:1
140
2.0
141
1.0
290
     0
  0
SCALE
  5
55
102
{ACAD_REACTORS
330
47
102
}
330
47
100
AcDbScale
 70
     0
300
4:1
140
4.0
141
1.0
290
     0
  0
SCALE
  5
56
102
{ACAD_REACTORS
330
47
102
}
330
47
100
AcDbScale
 70
     0
300
8:1
140
8.0
141
1.0
290
     0
  0
SCALE
  5
57
102
{ACAD_REACTORS
330
47
102
}
330
47
100
AcDbScale
 70
     0
300
10:1
140
10.0
141
1.0
290
     0
  0
SCALE
  5
58
102
{ACAD_REACTORS
330
47
102
}
330
47
100
AcDbScale
 70
     0
300
100:1
140
100.0
141
1.0
290
     0
  0
SCALE
  5
59
102
{ACAD_REACTORS
330
47
102
}
330
47
100
AcDbScale
 70
     0
300
1/128" = 1'-0"
140
0.0078125
141
12.0
290
     0
  0
SCALE
  5
5A
102
{ACAD_REACTORS
330
47
102
}
330
47
100
AcDbScale
 70
     0
300
1/64" = 1'-0"
140
0.015625
141
12.0
290
     0
  0
SCALE
  5
5B
102
{ACAD_REACTORS
330
47
102
}
330
47
100
AcDbScale
 70
     0
300
1/32" = 1'-0"
140
0.03125
141
12.0
290
     0
  0
SCALE
  5
5C
102
{ACAD_REACTORS
330
47
102
}
330
47
100
AcDbScale
 70
     0
300
1/16" = 1'-0"
140
0.0625
141
12.0
290
     0
  0
SCALE
  5
5D
102
{ACAD_REACTORS
330
47
102
}
330
47
100
AcDbScale
 70
     0
300
3/32" = 1'-0"
140
0.09375
141
12.0
290
     0
  0
SCALE
  5
5E
102
{ACAD_REACTORS
330
47
102
}
330
47
100
AcDbScale
 70
     0
300
1/8" = 1'-0"
140
0.125
141
12.0
290
     0
  0
SCALE
  5
5F
102
{ACAD_REACTORS
330
47
102
}
330
47
100
AcDbScale
 70
     0
300
3/16" = 1'-0"
140
0.1875
141
12.0
290
     0
  0
SCALE
  5
60
102
{ACAD_REACTORS
330
47
102
}
330
47
100
AcDbScale
 70
     0
300
1/4" = 1'-0"
140
0.25
141
12.0
290
     0
  0
SCALE
  5
61
102
{ACAD_REACTORS
330
47
102
}
330
47
100
AcDbScale
 70
     0
300
3/8" = 1'-0"
140
0.375
141
12.0
290
     0
  0
SCALE
  5
62
102
{ACAD_REACTORS
330
47
102
}
330
47
100
AcDbScale
 70
     0
300
1/2" = 1'-0"
140
0.5
141
12.0
290
     0
  0
SCALE
  5
63
102
{ACAD_REACTORS
330
47
102
}
330
47
100
AcDbScale
 70
     0
300
3/4" = 1'-0"
140
0.75
141
12.0
290
     0
  0
SCALE
  5
64
102
{ACAD_REACTORS
330
47
102
}
330
47
100
AcDbScale
 70
     0
300
1" = 1'-0"
140
1.0
141
12.0
290
     0
  0
SCALE
  5
65
102
{ACAD_REACTORS
330
47
102
}
330
47
100
AcDbScale
 70
     0
300
1-1/2" = 1'-0"
140
1.5
141
12.0
290
     0
  0
SCALE
  5
66
102
{ACAD_REACTORS
330
47
102
}
330
47
100
AcDbScale
 70
     0
300
3" = 1'-0"
140
3.0
141
12.0
290
     0
  0
SCALE
  5
67
102
{ACAD_REACTORS
330
47
102
}
330
47
100
AcDbScale
 70
     0
300
6" = 1'-0"
140
6.0
141
12.0
290
     0
  0
SCALE
  5
68
102
{ACAD_REACTORS
330
47
102
}
330
47
100
AcDbScale
 70
     0
300
1'-0" = 1'-0"
140
12.0
141
12.0
290
     0
  0
ENDSEC
  0
EOF
